Carcass - Embodiment Chords & Tabs

 

Embodiment Chords & Tabs

Carcass Chords & Tabs

Version: 1 Type: Bass Tab 0 ratings
1 star 2 stars 3 stars 4 stars 5 stars
comments

Embodiment Bass Tab

Intro
|------------------------|
|------------------------|
|---------1--------------|
|-0-0-0-1---1-0----------|

|-------------------|-------------4----|
|---6-7-9-7-6-7-6---|---4-5-----2---2--|
|-4---------------7-|-2-----0----------|
|-------------------|------------------|

|---------------6--|-------------4-|
|---6-7-9-7-6-7----|---4-5-----2---|
|-4----------------|-2-----0-------|
|------------------|---------------|

|-----------------|-----------------|-----------------|-----------------|  
|---4-5---4-5---4-|-5-7-5-4---------|-----------------|-----------------|
|-2-----2-----2---|---------7-5-4-2-|---2-4---2-4---4-|---4-5---4-5---5-|
|-----------------|-----------------|-1-----1-----1---|-3-----3-----3---|
[ Tab from: http://www.guitartabs.cc/tabs/c/carcass/embodiment_btab.html ]
|-----------------|-----------------|-----------------|-----------------|  
|---4-5---4-5---4-|-5-7-5-4---------|-----------------|-----------------|
|-2-----2-----2---|---------7-5-4-2-|---2-4---2-4---4-|-----------------|
|-----------------|-----------------|-1-----1-----1---|-3-3-3-----------|

|-------------|-------------|-------------|-----------------|
|-------------|-------------|-------------|-----------------|
|---------1---|-------1-----|---------1---|-----------------|
|-0-0-0-1---1-|-0-0-0-1---1-|-4-0-0-1---1-|-0-0-000-0-0-000-|

|----------------4-5-4-----------9--7-6---------9--7-6----------|
|-----7---6---7--------7-6-4------------9-7-6----------9-7-6----|
|----------------------------7-6--------------5--------------7--|
|-0-0---0---0---------------------------------------------------|

|---------------------------------------------|
|-------2-3--------2-3--------2-3------2-3-5--|
|-----5----------5----------5-----------------|
|-3----------4----------1----------4----------|
Comments