Carcass - Carneous Cacoffiny Chords & Tabs

 

Carneous Cacoffiny Chords & Tabs

Carcass Chords & Tabs

Version: 1 Type: Tab 0 ratings
1 star 2 stars 3 stars 4 stars 5 stars
comments

Carneous Cacoffiny Tab

   
join the death/black metal tab mailing list by emailing 
        

                            Carneous Cacoffiny tabs

Carneous Cacoffiny
(Tune down 2.5 steps to B)

I'm not positive about the little ascending bit in this riff, and the rhythm
notated for the final chords might be a little off.
Intro & verse:
|---------------|---------------------|------------|------------|
|---------------|---------------------|------------|------------|
|---------------|---------------------|------------2------------|
|---------------|---------------------|------------%-----------|
|-7------7------|-----5\4-7/8-4h5p4---|------------|------------|
|-5--5-5-5--5-5-|-5/6---------------6-|------------|------------|
  q  e e q  e e   e e e e e e s s s s

|--------------|---------------|---------------------|---------------|
|--------------|---------------|---------------------|---------------|
|--------------|---------------|---------------------|---------------|
|--------------|---------------|---------------------|---------------|
|-6--6-6-6/9---|-3---3\2-3/6---|-----4/5-8\7-4h5p4---|-7-----7---4-3-|
|-4--4-4-4/7---|-1---1\0-1/4---|-5/6---------------6-|-5-----5---2-1-|
  q  e e e q.    e e e e e q.    e e e e e e s s s s   e q.  q   e e

That last little ascending bit is harmonised, I think. (5ths?)
[ Tab from: http://www.guitartabs.cc/tabs/c/carcass/carneous_cacoffiny_tab.html ]
Other verse riff (alternate with the above):
|----------------|----------------|----------------|----------------|
|----------------|----------------|----------------|----------------|
|----------------|----------------|----------------|----------------|
|----------------|----------------|----------------|----------------|
|-7------7\6-----|-6------6\3-----|-3------3\2-----|-6------6\3-----|
|-5--5-5-5\4---0-|-4--4-4-4\1---0-|-1--1-1-1\0---0-|-4--4-4-4\1---0-|
  q  e e e q   e   sim.

At about 2:30 into the song, there's this bit, possibly as power chords:
|-------------|-------------|-------------|-------------| (qtr. notes)
|-------------|-------------|-------------|-------------|
|-------------|-------------|-------------|-------------|
|-------------|-------------|-------------|-------------|
|----------5--|-7--8--------|----------5--|----------3--|
|-5--7--8-----|-------8--7--|-3--5--6-----|-1--3--4-----|

Later, under "My corrupt crescendos...", there's a progression similar to
A5  C5  E5  D#5  G#5  B5, with some other little bits in there...

...but I don't know exactly how it goes--this sounds close, however.  I
believe the subsequent progression is
A5  Bb5  G5  F#5  |  A5  Bb5  G5  G#5

The "enter my funereality" bit is the same chord progression basically.

The cool arpeggiated ending bit which alternates with that above riff is:
Asus2  G#5  Gsus2  F#5

The ending riff is: (2 gtrs.)
|-----------------|-----------------|-----------------|-----------------|
|-----------------|-----------------|-----------------|-----------------|
|--------5--7-5~~-|--------5--7-5~~-|--------5--7-5~~-|--------5--7-4~~-|
|--------7--9-7~~-|--------7--9-7~~-|--------7--9-7~~-|--------7--9-6~~-|
|------7----------|------5----------|------4----------|------2----------|
|-5555-5----------|-3333-3----------|-2222-2----------|-0000-0----------|
  ssss e q  e q     sim.

And then of course an A5, segueing to Lavaging...
Comments