Carcass - Cadaveric Incubator Of Endoparasites Chords & Tabs

 

Cadaveric Incubator Of Endoparasites Chords & Tabs

Carcass Chords & Tabs

Version: 1 Type: Tab 0 ratings
1 star 2 stars 3 stars 4 stars 5 stars
comments

Cadaveric Incubator Of Endoparasites Tab

   
Carcass: Cadaveric Incubator of Endoparasites

(Tune down 2.5 steps to B)

Between solos:
|--------------|--------------------|
|--------------|--------------------|
|--------------|--------------------|
|--------------|--------------------|
|-4-222-3~~~~--|-4-222-5~~~-5-5\4~~-|
|-2------------|-2------------------|
  e sse e_h      e sse q    e   q
[ Tab from: http://www.guitartabs.cc/tabs/c/carcass/cadaveric_incubator_of_endoparasites_tab.html ]
Verse:
|----------------------|------------------|----------------------|
|----------------------|------------------|----------------------|
|----------------------|------------------|----------------------|
|----------------------|------------------|----------------------|
|-4----4----4----2--5--|-4----4---------5-|-4----4----4----2--5--|
|-2-22-2-22-2-22-0--3--|-2-22-2-22320-3---|-2-22-2-22-2-22-0--3--|
  e ss e ss e ss e  e    e ss e sssse e e   e ss e ss e ss e  e

|----------------------|  A similar F#5 E5 B5 C5 progression is played
|----------------------|  following the second solo.  (h q e e rhythm
|----------------------|  for the chords).
|----------------4--5--|
|-4----4----2----2--3--|
|-2-22-2-22-0-00-------|
  e ss e ss e ss e  e

The fast bit under "lice and ticks" is a trem. picked (5) 3 fr.,
with the high note being (5) 7 fr.
Comments