Carcass - Blind Bleeding The Blind Chords & Tabs

 

Blind Bleeding The Blind Chords & Tabs

Carcass Chords & Tabs

Version: 1 Type: Tab 0 ratings
1 star 2 stars 3 stars 4 stars 5 stars
comments

Blind Bleeding The Blind Tab

   
join the death/black metal tab mailing list by emailing 
        

                          Blind Bleeding the Blind tabs

Blind Bleeding the Blind
(Tune down 2.5 steps to B)

Many thanks to jpm@muhos.fi for his help with this song!

Intro:
|-----------------|-----------------|-----------------|------------------|
|-----------------|-----------------|-----------------|------------------|
|-----------------|-----------------|-----------------|------------------|
|-----------------|---------5-------|-----------------|------------------|
|-----------------|-5---------------|-----------------|------------------|
|-3-33333-6-33333-|---33333---33333-|-2-222-5-222-5-2-|-6-222-6-222-6-2--|

|-----------------|-----------------|-----------------|-------------------|
|-----------------|-----------------|-----------------|-------------------|
|-----------------|-----------------|-----------------|-------------------|
|-----------------|---------5-------|-----------------|-------------------|
|-----------------|-5---------------|-7-----7-----7---|-8-----8-10-----10-|
|-3-33333-6-33333-|---33333---33333-|---555---555---5-|---666------888----|
[ Tab from: http://www.guitartabs.cc/tabs/c/carcass/blind_bleeding_the_blind_tab.html ]
(Two measures of 6/8, one of 4/8)
|-------------|-------------|---------|-------------|-------------|---------|
|-------------|-------------|---------|-------------|-------------|---------|
|-----7-------|-------------|---------|-------------|-----5-------|---------|
|-------8-5---|-----5-6-3---|-----6---|-----7-8-5---|-------6-3---|-6-------|
|---5-------5-|---3-------3-|---4-----|---5-------5-|---3-------3-|---4-----|
|-3-----------|-1-----------|-2-------|-3-----------|-1-----------|-----2---|
  e e e e e e   e e e e e e   e e q     e e e e e e   e e e e e e   e e q

The lick section, used also in the verses, is played over three chords (G5, F5,
F#5).  The subsequent progression is:
G5    D5   G#5    D#5    F5    C5   F#5

When Jeff sings "blood and tear - out damn spot, out..." both guitars play a
variation of the intro riff with different timing.
Comments