Carcass - Black Star Chords & Tabs

 

Black Star Chords & Tabs

Carcass Chords & Tabs

Version: 1 Type: Bass Tab 0 ratings
1 star 2 stars 3 stars 4 stars 5 stars
comments

Black Star Bass Tab

Standard Tuning 

           x3
G|-----------------------|----------------|
D|-----------------------|----------------|
A|-----------------------|----------------|
E|--7-6-5----------------|----------------|
B|--------7-6-0--3h5-0~--|---3-3---3/6-5--|

G|--------------------------------|
D|--------------5-----------------|
A|------------4---4---------------|
E|----------5---------------------|
B|--0--0-0----------0-0--0---0-0--|
[ Tab from: http://www.guitartabs.cc/tabs/c/carcass/black_star_btab.html ]
G|--------------------------------|
D|-------------8------------------|
A|-----------7---7----------------|
E|---------8----------------------|
B|--3-3-3-----------3-3---3---3-3-|

G|----------------------------------------------------------|
D|----------------------------------------------------------|
A|----------------------------------------------------------|
E|-------7p5--------------------------7p5--0-2-5-0-1-0------|
B|-0--00-----0--5h67--0-345-3~--0--00--------------------3~-|

During Solo
G|-------------------------|-------------------------|
D|-------------------------|-------------------------|
A|-------------------------|-------------------------|
E|---------7--9-----10-9---|--------3-5/--7----------|
B|--0--00-------0-0--------|--3---5------------------|
Comments