Carbon Leaf - The Boxer Chords & Tabs

 

The Boxer Chords & Tabs

Carbon Leaf Chords & Tabs

Version: 1 Type: Tab 0 ratings
1 star 2 stars 3 stars 4 stars 5 stars
comments

The Boxer Tab

e-|-0--0--2h0--0--0--3h0--0--0--5h0--3h0--2h0--
b-|--------------------------------------------
g-|--------------------------------------------Keeps 
d-|--------------------------------------------Repeating
a-|--------------------------------------------
e-|--------------------------------------------
[ Tab from: http://www.guitartabs.cc/tabs/c/carbon_leaf/the_boxer_tab.html ]
e-|-strum-along-with-song--|
b-|--3----3--3--3--3-------|
g-|--2----2--2--2--0-------|
d-|--2----3--2--2--x-------|
a-|--0----0--3-----2-------|
e-|----------------3-------|

Chorus is same progression of these chords.

the electric guitar part of the song 
e-|-3--1--0-----|
b-|----------3--|
g-|-------------|
d-|-------------|
a-|-------------|
e-|-------------|
Comments