Carbon Leaf - One Prarie Outpost Chords & Tabs

 

One Prarie Outpost Chords & Tabs

Carbon Leaf Chords & Tabs

Version: 1 Type: Tab

One Prarie Outpost Tab

-------------------------10------------------------------------------------|
-------------------------10------------------------------------------------|
---------------10-10/9---10--12-12-14~--15-14--12--10-12-10--7--5-----12^--|
--------10--12-------------------------------------------------------------|
-10--12--------------------------------------------------------------------|
---------------------------------------------------------------------------|

------------------------------------|
------------------------------------|
-9-10-12-12/14--15-14-12-12-14-10---|
------------------------------------|
------------------------------------|
------------------------------------|
[ Tab from: http://www.guitartabs.cc/tabs/c/carbon_leaf/one_prarie_outpost_tab.html ]