Carbon Leaf - One Prairie Outpost Chords & Tabs

 

One Prairie Outpost Chords & Tabs

Carbon Leaf Chords & Tabs

Version: 1 Type: Tab 0 ratings
1 star 2 stars 3 stars 4 stars 5 stars
comments

One Prairie Outpost Tab

-------------------------------------------------------------------------------
                      One Prairie Outpost by Carbon Leaf
-------------------------------------------------------------------------------

[ Tab from: http://www.guitartabs.cc/tabs/c/carbon_leaf/one_prairie_outpost_tab.html ]
Album: Indian Summer
Transcribed by: Julien Burns
This is played throughout the intro and verse. It's a great song, so hopefully
someone will tab the chorus and bridge.

STANDARD TUNING


e|----1------2-3-2-0----5-5----3-3-|
B|----1----0------------6------5---|
G|-3--2--3--------------7------5---|
D|----3-----------------7------5---|
A|----3--------------5--5---3--3---|
E|----1-----------------5------3---|
Comments