Carbon Leaf - One Day Chords & Tabs

 

One Day Chords & Tabs

Carbon Leaf Chords & Tabs

Version: 1 Type: Tab 0 ratings
1 star 2 stars 3 stars 4 stars 5 stars
comments

One Day Tab

   
Hey everyone.  This is probably Carbon Leaf's funkiest song, based on the
syncopated staccato stuff that Guitar 2 does in the verse.  Enjoy it!

Carbon Leaf - One Day

Intro:

Gtr 1 (strum quickly)		Gtr 2 (on second Dsus2)

    Bsus4  Dsus2   E
e-----0------0-----0---		e---------
B-----0------3-----0---		B---------
G-----4------2-----1---		G---2s16--
D-----4------0-----2---		D---------
A-----2------------2---		A---------
E------------------0---		E---------

Gtr 2 (quick, syncopated strumming)

   B				D	  E
e------------------------------------------------
B--4--4-4--4--4-4--4-4--7--7-7--9--9-9--9-9-9-9--
G--4--4-4--4--4-4--4-4--7--7-7--9--9-9--9-9-9-9--
D--4--4-4--4--4-4--4-4--7--7-7--9--9-9--9-9-9-9--
A--2--2-2--2--2-2--2-2--5--5-5--7--7-7--7-7-7-7--
E------------------------------------------------

Verse 1:

 B	  D		 E
Weave through the tall grass 
 B	   D			 E
Jab me. Let me know that I'm still alive 
 B		   D		   E
Last trip the boy will be taking 
B		     D	  E
Everything from here is crazy 


Chorus:
[ Tab from: http://www.guitartabs.cc/tabs/c/carbon_leaf/one_day_tab.html ]
    B	     F#	 G	   A
But I know one day I will live and wonder 
 B	     F#		   G	     A
She will, she'll learn to walk all over again 
 B	     F#    G	A
They will gather once again and... 

e----------------------
B-------------------7--
G--9p8------8-9p8------
D------11-9-------9----
A----------------------
E----------------------


Verse 2:

Pretend. Did you think that one day it would come to this? 
Sitting in a stranger's chair, staring at the whitewash-wall 
Waiting for the inspiration, invitation to leave this place 
Hoping there's a better space to occupy my fall from grace 

(Repeat Chorus)



Interlude: (repeat several times)

   B				 A	     G
e--------------------------------------------------
B--------------------------------------------------
G--9p8-11--9p8-11--9p8---7p6-9--7p6-9p7-7p6-7s11---
D-----9---9---9---9-----9---7--7---7---7-----------
A--------------------------------------------------
E--------------------------------------------------

Hide. Over Hear. Same as it ever was 
I've never been through this before 
Tell me I'm wrong and keep me here 
Am I wrong? I am Wrong... 

(Repeat chorus)

(Repeat verse and chorus with solo)

Verse 3:

Keep me in the tall grass 
Jab me (the one still sitting in that chair) 
First trip the boy is still taking 
Run and hide but pretend your exploring 


(Repeat chorus twice) 


Hope this works for you!  Reach me at timoteo59@hotmail.com if you have any
questions.  Thanks.  - Erik
Comments