Capital Punishment - Trac Chords & Tabs

 

Trac Chords & Tabs

Capital Punishment Chords & Tabs

Version: 1 Type: Tab 0 ratings
1 star 2 stars 3 stars 4 stars 5 stars
comments

Trac Tab

Capital Punishment - Trac 01 (written by : C.BEATON)



-------------------- -------------------- --------------------
-------------------- -------------------- --------------------
-7-7-7-7-7-7-7-7---- -------------------- --------------------
-7-7-7-7-7-7-7-7---- -7-7-7-7-7-7-7-7---- -9-9-9-9-9-9-9-9----
-5-5-5-5-5-5-5-5---- -7-7-7-7-7-7-7-7---- -9-9-9-9-9-9-9-9----
-------------------- -5-5-5-5-5-5-5-5---- -7-7-7-7-7-7-7-7----

--------------------
--------------------
--------------------
-8-8-8-8---7-7-7-7--    (REPEAT 4X)
-8-8-8-8---7-7-7-7--
-6-6-6-6---5-5-5-5--


[ Tab from: http://www.guitartabs.cc/tabs/c/capital_punishment/trac_tab.html ]
----------------------------------------
----------------------------------------
----------------------------------------
-7-7-7-7---5-5-5-5---7-7-7-7---9-9-9-9--  (REPEAT 3X)
-7-7-7-7---5-5-5-5---7-7-7-7---9-9-9-9--
-5-5-5-5---3-3-3-3---5-5-5-5---7-7-7-7--


--------------------
--------------------
--------------------
-7-7-7-7b-----------
-7-7-7-7b-----------
-5-5-5-5b-----------


-----------------------------------------
-----------------------------------------
--7-7-7-7--------------------------------
--7-7-7-7---7-7-7-7---5-5-5-5---7-7-7-7-- (REPEAT 3X)
--5-5-5-5---7-7-7-7---5-5-5-5---7-7-7-7--
------------5-5-5-5---3-3-3-3---5-5-5-5--


                        (REPEAT ENTIRELY)
                         _______________

Comments