Capdown - Ska Wars Chords & Tabs

 

Ska Wars Chords & Tabs

Capdown Chords & Tabs

Version: 1 Type: Tab 0 ratings
1 star 2 stars 3 stars 4 stars 5 stars
comments

Ska Wars Tab

CAPDOWN - Ska Wars - Guitar tab

tabbed by ike_chumpstate@hotmail.com

If any of it's wrong, send him hate mail. (joke)

SKA INTRO (mute the downstrokes, strum upwards to get it off beat)

e--4-4-4-4-7-7-7-7-|
B--4-4-4-4-7-7-7-7-|
G--5-5-5-5-8-8-8-8-|
D--6-6-6-6-9-9-9-9-|
A--x-x-x-x-x-x-x-x-|
E--x-x-x-x-x-x-x-x-|x7

DISTORTION (ordinary strumming)

E--------|
B--------|
G--------|
D--4---5-|
A--4---5-|
E--2---3-|

Turn off distortion

e--4-4-4-4-7-7-7-7-|
B--4-4-4-4-7-7-7-7-|
G--5-5-5-5-8-8-8-8-|
D--6-6-6-6-9-9-9-9-|
A--x-x-x-x-x-x-x-x-|
E--x-x-x-x-x-x-x-x-|x3

Drum fill

E--------|
B--------|
G--------|
D--4---5-|
A--4---5-|
E--2---3-|

e--4-4-4-4-7-7-7-7-|
B--4-4-4-4-7-7-7-7-|
G--5-5-5-5-8-8-8-8-|
D--6-6-6-6-9-9-9-9-|
A--x-x-x-x-x-x-x-x-|
E--x-x-x-x-x-x-x-x-|x7

DISTORTION again

E--------|
B--------|
G--------|
D--4---5-|
A--4---5-|
E--2---3-|

E----------------------------------|
B----------------------------------|
G--6-6-6-4-7-7-7-7-----------------|
D--6-6-6-4-7-7-7-7-9-9-9-9-6-6-6-6-|
A--4-4-4-2-5-5-5-5-9-9-9-9-6-6-6-6-|
E------------------7-7-7-7-4-4-4-4-|x3

E-----------------------------------------|
B-----------------------------------------|
G--6-6-6-4-7-7-7-7--6-6---6-6---6-6-------|
D--6-6-6-4-7-7-7-7--6-6---6-6---6-6--4-5--|
A--4-4-4-2-5-5-5-5--4-4---4-4---4-4--4-5--|
E------------------------------------2-3--|x1

e--4-4-4-4-7-7-7-7-|
B--4-4-4-4-7-7-7-7-|
G--5-5-5-5-8-8-8-8-|
D--6-6-6-6-9-9-9-9-|
A--x-x-x-x-x-x-x-x-|
E--x-x-x-x-x-x-x-x-|x3

Drum fill

(distorted)
E--------|
B--------|
G--------|
D--4---5-|
A--4---5-|
E--2---3-|

Turn off distortion

e--4-4-4-4-7-7-7-7-|
B--4-4-4-4-7-7-7-7-|
G--5-5-5-5-8-8-8-8-|
D--6-6-6-6-9-9-9-9-|
A--x-x-x-x-x-x-x-x-|
E--x-x-x-x-x-x-x-x-|x7

DISTORTION again

E--------|
B--------|
G--------|
D--4---5-|
A--4---5-|
E--2---3-|
[ Tab from: http://www.guitartabs.cc/tabs/c/capdown/ska_wars_tab.html ]
E----------------------------------|
B----------------------------------|
G--6-6-6-4-7-7-7-7-----------------|
D--6-6-6-4-7-7-7-7-9-9-9-9-6-6-6-6-|
A--4-4-4-2-5-5-5-5-9-9-9-9-6-6-6-6-|
E------------------7-7-7-7-4-4-4-4-|x3

E----------------------------------|
B----------------------------------|
G--6-6-6-4-7-7-7-7-8-8-8-8-8-8-8-8-|
D--6-6-6-4-7-7-7-7-8-8-8-8-8-8-8-8-|
A--4-4-4-2-5-5-5-5-6-6-6-6-6-6-6-6-|
E----------------------------------|x1

E-----------------------------------|
B-----------------------------------|
G--9-9-9-9--------------------------|
D--9-9-9-9-9-9-9-9-6-6-6-6-6-6-6-6--|
A--7-7-7-7-9-9-9-9-6-6-6-6-6-6-6-6--|
E----------7-7-7-7-4-4-4-4-4-4-4-4--|x3

E-----------------------------------------|
B-----------------------------------------|
G--9-9-9-9---------8-8-8-8----------------|
D--9-9-9-9-9-9-9-9-8-8-8-8----4----5------|
A--7-7-7-7-9-9-9-9-6-6-6-6----4----5------|
E----------7-7-7-7------------2----3------|x1

----BRIDGE----
SKA part for two bars, something else for two bars

E----------------------------------|
B----------------------------------|
G--6-6-6-4-7-7-7-7-----------------|
D--6-6-6-4-7-7-7-7-9-9-9-9-6-6-6-6-|
A--4-4-4-2-5-5-5-5-9-9-9-9-6-6-6-6-|
E------------------7-7-7-7-4-4-4-4-|x3

E----------------------------------|
B----------------------------------|
G--6-6-6-4-7-7-7-7-8-8-8-8-8-8-8-8-|
D--6-6-6-4-7-7-7-7-8-8-8-8-8-8-8-8-|
A--4-4-4-2-5-5-5-5-6-6-6-6-6-6-6-6-|
E----------------------------------|x1

E-----------------------------------|
B-----------------------------------|
G--9-9-9-9--------------------------|
D--9-9-9-9-9-9-9-9-6-6-6-6-6-6-6-6--|
A--7-7-7-7-9-9-9-9-6-6-6-6-6-6-6-6--|
E----------7-7-7-7-4-4-4-4-4-4-4-4--|x3

E-----------------------------------------|
B-----------------------------------------|
G--9-9-9-9---------8-8-8-8----------------|
D--9-9-9-9-9-9-9-9-8-8-8-8----4----5------|
A--7-7-7-7-9-9-9-9-6-6-6-6----4----5------|
E----------7-7-7-7------------2----3------|x1

Play the ska bit again

The last three chords are.....
(distorted)
E----------|
B----------|
G----------|
D--4--5--6-|
A--4--5--6-|
E--2--3--4-|.
Comments