Capdown - Ska Wars Chords & Tabs

 

Ska Wars Chords & Tabs

Capdown Chords & Tabs

Version: 2 Type: Bass Tab 0 ratings
1 star 2 stars 3 stars 4 stars 5 stars
comments

Ska Wars Bass Tab

tabbed by Jess  (explosiveducks@hotmail.com)

riff one 

G--------|---------------------
D--------|----6----------------
A--------|4-6-----4-6-4--------
E--2-3-4-|------6-------6-4----

riff two
                       first three times        fourth    
G--------------------|-----------------------|----------
D--------------------|-----------------------|----------
A--4-4-4-2-5-5-5-5-5-|-----------------------|----------
E--------------------|7-7-7-7-6-5-4-4-4-4----|-77-77-77-
[ Tab from: http://www.guitartabs.cc/tabs/c/capdown/ska_wars_btab_ver_2.html ]
riff three 
                           first three times
G--------------------|-----------------------|--------------
D--------------------|-----------------------|--------------
A--4-4-4-2-5-5-5-5-5-|-----------------------|-66666666666--
E--------------------|7-7-7-7-6-5-4-4-4-4----|--------------

riff four
                              x3
G-------------------------------|---------------------------
D-------------------------------|---------------------------
A---777777----------------------|-777777------666666666666--
E---------777777-224-224-224-224|-------777777--------------
Comments