Cant Hang - Crazy Tm Freestyle Chords & Tabs

 

Crazy Tm Freestyle Chords & Tabs

Cant Hang Chords & Tabs

Version: 1 Type: Bass Tab 0 ratings
1 star 2 stars 3 stars 4 stars 5 stars
comments

Crazy Tm Freestyle Bass Tab

==========================================================================================
                           CRAZY T.M. / FREESTYLE  - Can't Hang
==========================================================================================

Tabbed By David Funk (dgfunk@gmail.com)

Tuning - Standard Tuning (EADG)

 More Can't Hang Tabs For 4 String Bass

 * = Play note 8 times (eight) 
 x= Rest one beat 

  
  +Verse 1+
G|------------------------------------------------------------------|
D|------------------------------------------------------------------|
A|1*-----5-5-5-5--3-3-3-3-------------------------------------------|
E|--1*-3*-----------------------------------------------------------|

    +Solo+ (When the music volume cuts)
G|------------------------------------------------------------------|
D|------------------------------------------------------------------|
A|3-3-x-5-5-6-5-3-5-3-3-x-x-5-5-6-5-3-5-----------------------------|
E|---------------------------------------3-1-x-x--7--5--------------|
 
  +Verse 2 Part #1+
G|------------------------------------------------------------------|
D|------------------------------------------------------------------|
A|3-3-x-5-5-6-5-3-5-3-3-x-x-5-5-6-5-3-5-----------------------------|
E|---------------------------------------3-1-x-x--7--5--------------|

  +Verse 2 Part #2+ (You Can Tell When It Changes)
G|------------------------------------------------------------------|
D|------------------------------------------------------------------|
A|----x-1-1---------------------------------------------------------|
E|3-3-x-----5-------------------------------------------------------|
[ Tab from: http://www.guitartabs.cc/tabs/c/cant_hang/crazy_tm_freestyle_btab.html ]
  +Verse 2 Part #2 Continued+
G|------------------------------------------------------------------|
D|------------------------------------------------------------------|
A|------1-1-1-------------------------------------------------------|
E|3-3-3-------5-5-5-x-5-5-5-----------------------------------------|
  
  +Verse 2 Part #3
G|------------------------------------------------------------------|
D|------------------------------------------------------------------|
A|----1-1-x-0-------------------------------------------------------|
E|3-3---------------------------------------------------------------|

  +Pre-Chorus+
G|------------------------------------------------------------------|
D|------------------------------------------------------------------|
A|3-3-x-5-5-6-5-3-5-3-3-x-x-5-5-6-5-3-5-----------------------------|
E|---------------------------------------3-1-x-x--7--5--------------|

  +Chorus+
G|------------------------------------------------------|-----------|
D|------------------------------------------------------------------|
A|-------1-1-x-0--------1-1-1---------------------------------------|
E|3-3-3-----------3-3-3--------0-0-0--------------------------------|

G|-------------------------slow it down--------end------------------|
D|-------------------------slow it down--------end------------------|
A|--------1-1-1-1-0-0-0----slow it down--------end------------------|
E|3-3-3-3------------------slow it down--------end------------------|

Thats the End! 

Thats a Fun song to Play. Hope You all enjoy it. If theres anything
wrong with it, just email me! dgfunk@gmail.com


==============================================================================
Compiled with TabPlayer :: http://www.simoneperandini.com/tabplayer.htm
Comments