Cant Hang - Coast To Coast Chords & Tabs

 

Coast To Coast Chords & Tabs

Cant Hang Chords & Tabs

Version: 1 Type: Bass Tab 0 ratings
1 star 2 stars 3 stars 4 stars 5 stars
comments

Coast To Coast Bass Tab

-------------------------------------------------------------------------------
			     COAST TO COAST - Can't Hang
-------------------------------------------------------------------------------

Tabbed By : David Funk
e-mail: dgfunk@gmail.com


Song: Coast to Coast
Artist: Can't Hang

Well, I looked and looked and looked and could not find any bass tabs for these guys and 

they are one of my favorite bands. This is my first tab, so please be nice! and please 

correct it if I'm wrong, that would be great. Im only 15 so I'm sure there are more 

experianced bass players out there. I did this on a saturday, i just sat there and 

listened to the song, and figured it out, i hope its right! Here goes nothing...


Tuning: Standard Tuning

   =INTRO=

G|---------------------------------------------------------------------------|
D|---------------------------------------------------------------------------|
A|3-3--6-10-6-10----5---5----------------------------------------------------|
E|----------------3---2------------------------------------------------------|


 =Pre Chourus=

G|---------------------------------------------------------------------------|
D|---------------------------------------------------------------------------|
A|---------------------------------------------------------------------------|
E|1--6---8--10-11-13----4--6--8----------------------------------------------|

  =Chorus=

G|---------------------------------------------------------------------------|
D|---------------------------------------------------------------------------|
A|---------------------------------------------------------------------------|
E|3-3-3-3-10-10-1-1-3-3------------------------------------------------------|

[ Tab from: http://www.guitartabs.cc/tabs/c/cant_hang/coast_to_coast_btab.html ]
 =Verse 2=


G|---------------------------------------------------------------------------|
D|---------------------------------------------------------------------------|
A|3-3--6-10-6-10----5---5----------------------------------------------------|
E|----------------3---2------------------------------------------------------|

  =Pre Chorus= (still During verse) you can tell when it changes

G|---------------------------------------------------------------------------|
D|---------------------------------------------------------------------------|
A|---------------------------------------------------------------------------|
E|1--6---8--10-11-13----4--6--8----------------------------------------------|

 =Be More War...+

G|---------------------------------------------------------------------------|
D|---------------------------------------------------------------------------|
A|---------------------------------------------------------------------------|
E|3-3-3-3-10-10-1-1-3-3-3-3--------------------------------------------------|

  =SOLO=


G|---------------------------------------------------------------------------|
D|---------------------------------------------------------------------------|
A|3-3--6-10-6-10----5---5----------------------------------------------------|
E|----------------3---2------------------------------------------------------|


 And Thats it! YOu all probably havent heard of this band, because they are a band that 

plays in baltimore, Md alot. Theyre not very big all over the states, but theyre awesome.

Check em out if you have limewire, or kazaa or something, i dont even think theyre on 

itunes.

Thanks!

David Funk
===============================================================================
Comments