Cannibal Corpse - Zero The Hero Chords & Tabs

 

Zero The Hero Chords & Tabs

Cannibal Corpse Chords & Tabs

Version: 1 Type: Tab 0 ratings
1 star 2 stars 3 stars 4 stars 5 stars
comments

Zero The Hero Tab

Zero the Hero
By: Cannibal Corpse
Off the Hammer Smashed Face E.P.
And Tomb of the Mutilated
Transcribed by: Mike Bower
Detune Guitars ½ Step
Opening Riff					4x
Eb|-----------------------|-------------------------------|
Bb|-----------------------|-------------------------------|
Gb|-----------------------|-------------------------------|
Db|--4-4-5--4-----4-4-5-4-|--4-6-6--7--6------------------|
Ab|--4-4-3--2--2--4-4-3-2-|--4-6-6--5--4------------------|
Eb|--2-2-3--2--0--2-2-3-2-|--2-4-4--5--4------------------|

Main Riff Play 2x
Eb|-------------------------------------------------------|
Bb|-------------------------------------------------------|
Gb|-------------------------------------------------------|
Db|-------------------------------------------------------|
Ab|----------------------0--------------------------------|
Eb|-0-1-22--0-1-22-0-1-2---2-0-22-------------------------|
    PM------------------|  PM----|
Then play main riff with these chords on top. Sustain 1 chord per every time you play riff (play 2x) (Main Riff 8x)
Eb|-------------------------------------------------------|
Bb|-------------------------------------------------------|
Gb|-------------------------------------------------------|
Db|---4--6--7--5------------------------------------------|
Ab|---4--6--7--3------------------------------------------|
Eb|---2--4--5--3------------------------------------------|

Play 8x
Eb|-------------------------------------------------------|
Bb|-------------------------------------------------------|
Gb|-------------------------------------------------------|
Db|-------------------------------------------------------|
Ab|------------------------0------------------------------|
Eb|---0-1-2--0-1-2--0-1-2-----2-0-2-----------------------|
	 PM-----------------|    PM---|
Chorus 4x
Eb|-------------------------------------------------------|
Bb|-------------------------------------------------------|
Gb|-------------------------------------------------------|
Db|-------------------------------------------------------|
Ab|-----------------------2-------------------------------|
Eb|---2-3-4--2-3-4--2-3-4---4-2-4--2-3--------------------|

Eb|-------------------------------------------------------|
Bb|-------------------------------------------------------|
Gb|-------------------------------------------------------|
Db|---6--4--4--6------------------------------------------|
Ab|---4--2--4--6------------------------------------------|
Eb|---4--2--2--4------------------------------------------|

Play 2x
Eb|---------------------------------|---------------------|
Bb|---------------------------------|---------------------|
Gb|---------------------------------|---------------------|
Db|---------------------------------|--4--6--7--5---------|
Ab|-----------------------0---------|--4--6--7--3---------|
Eb|---0-1-22-0-1-22-0-1-2---2-0-22--|--2--4--5--3---------|
	 PM-----------------|  PM----|

Play 8x
Eb|-------------------------------------------------------|
Bb|-------------------------------------------------------|
Gb|-------------------------------------------------------|
Db|-------------------------------------------------------|
Ab|------------------------0------------------------------|
Eb|---0-1-2--0-1-2--0-1-2-----2-0-2-----------------------|

Chorus Play 4x
Eb|-------------------------------------------------------|
Bb|-------------------------------------------------------|
Gb|-------------------------------------------------------|
Db|-------------------------------------------------------|
Ab|------------------------2------------------------------|
Eb|---2-3-4--2-3-4--2-3-4-----4-2-4--2-3------------------|

Eb|---------------|------------------------|--------------|
Bb|---------------|------------------------|--------------|
Gb|---------------|------------------------|--------------|
Db|---6--4--4--6--|--4--4--5--4------------|--------------|
Ab|---4--2--4--6--|--4--4--3--2--2---------|--------------|
Eb|---4--2--2--4--|--2--2--3--2--0---------|--------------|
[ Tab from: http://www.guitartabs.cc/tabs/c/cannibal_corpse/zero_the_hero_tab.html ]
Eb|---------------|------------------|--------------------|
Bb|---------------|------------------|--------------------|
Gb|---------------|------------------|--------------------|
Db|---4--4--5--4--|--4-5-6--6--7--6--|--4--6--6--7--6-----|
Ab|---4--4--3--2--|--4-5-6--6--5--4--|--4--6--6--5--4-----|
Eb|---2--2--3--2--|--2-3-4--4--5--4--|--2--4--4--5--4-----|


Eb|-----------------|-------------------------------------|
Bb|-----------------|-------------------------------------|
Gb|-----------------|-------------------------------------|
Db|--4--6--6--7--6--|--4--6--6--7--6----------------------|
Ab|--4--6--6--5--4--|--4--6--6--5--4----------------------|
Eb|--2--4--4--5--4--|--2--4--4--5--4----------------------|

Play 2x
Eb|-------------------------------------------------------|
Bb|-------------------------------------------------------|
Gb|-------------------------------------------------------|
Db|-------------------------------------------------------|
Ab|-------------------------0-----------------------------|
Eb|---0-1-22--0-1-22-0-1-2----2-0-22----------------------|
	 PM------------------|   PM----|
SOLO								 
Eb|-------------------------------------------------------|
Bb|----------10----10----10-12----------------------------|
Gb|---11~~~-----13----13-------11-11^~--------------------|
Db|-------------------------------------------------------|
Ab|-------------------------------------------------------|
Eb|-------------------------------------------------------|

Eb|-------------------------------------------------------|
Bb|-------------------------------------------------------|
Gb|-------------------------------------------------------|
Db|-------------------------------------------------------|
Ab|---11^^^---11h12p11--9~---12-11-9---12-11-9------------|
Eb|-------------------------------------------------------|

Eb|-------------------------------------------------------|
Bb|-------------------------------------------------------|
Gb|-------------------------------------------------------|
Db|-------------------------9-----------------------------|
Ab|---12-11-9-11-12--11-12-----9-11^----------------------|
Eb|-------------------------------------------------------|

Eb|---------------------17-16-14-12-----------------------|
Bb|---14~--17-14-17/19---------------15-14-12^-12---------|
Gb|------------------------------------------------14-----|
Db|-------------------------------------------------------|
Ab|-------------------------------------------------------|
Eb|-------------------------------------------------------|



							 (Bend and release)
Eb|-------------------------------------------------------|
Bb|---12^-12---------------------17-(17)^-(17)p14---------|
Gb|-----------14~--13h14p13-11~---------------------------|
Db|-------------------------------------------------------|
Ab|-------------------------------------------------------|
Eb|-------------------------------------------------------|
						  |--play-8x-------|
Eb|---17-(17)^-(17)p14-------------------17-(17)^-(17)p14-|
Bb|---------------------17-(17)^-(17)p14------------------|
Gb|-------------------------------------------------------|
Db|-------------------------------------------------------|
Ab|-------------------------------------------------------|
Eb|-------------------------------------------------------|

Eb|-17-(17)^-(17)p14--------------------------------------|
Bb|-------------------17-(17)^-(17)p14--17-(17)^-(17)-14--|
Gb|-------------------------------------------------------|
Db|-------------------------------------------------------|
Ab|-------------------------------------------------------|
Eb|-------------------------------------------------------|

Eb|-------------------------------------------------------|
Bb|---17-(17)^-(17)-14-17-14-17/19~~----------------------|
Gb|-------------------------------------------------------|
Db|-------------------------------------------------------|
Ab|-------------------------------------------------------|
Eb|-------------------------------------------------------|
Comments