Cannibal Corpse - Worm Infested Chords & Tabs

 

Worm Infested Chords & Tabs

Cannibal Corpse Chords & Tabs

Version: 1 Type: Tab 0 ratings
1 star 2 stars 3 stars 4 stars 5 stars
comments

Worm Infested Tab

   
"Worm Infested"
   by Cannibal corpse
        Transcribed by Rodrigo G. T. (neonecrogenesis)

Tuning:  Drop D then transposed down a whole step (C G C F a D)
(#) = Palm mute

Tune Down 3 Steps

Riff 1

Bb -------------------------------------------------
F  -------------------------------------------------
c# -------------------------------------------------
Ab -------------------------------------------------
Eb -------------------------------------------------
Bb -8-8-8-5-5-5-5-5-5-4-4-4-4-4-4-4-4-4-4-4-4-0-0-0-

Riff 1A

Bb ----------------------------------------------------
F  ----------------------------------------------------
c# ----------------------------------------------------
Ab -10-10-10-7-7-7-7-7-7-6-6-6-6-6-6-6-6-6-6-6-6-2-2-2-
Eb ----------------------------------------------------
Bb ----------------------------------------------------

Riff 2

Bb -----------------------------------------------------------------
F  -----------------------------------------------------------------
c# -----------------------------------------------------------------
Ab -------------------------1-1-2-2-3-3-2-2-1-1---------------------
Eb -------------0-0-2-2-3-3---------------------3-3-2-2-0-0---------
Bb -0-0-1-1-4-4---------------------------------------------4-4-1-1-

Riff 2A
[ Tab from: http://www.guitartabs.cc/tabs/c/cannibal_corpse/worm_infested_tab.html ]
Bb -----------------------------------------
F  -----------------------------------------
c# -----------------------------------------
Ab -2----2----2----2----2----2----2----2----
Eb -2----2----2----2----2----2----2----2----
Bb -0----0----0----0----0----0----0----0----

Riff 2B

Bb -----------------------------------------------------------------
F  -----------------------------------------------------------------
c# ---------------------------------------------------4--2----------
Ab -------------------------1-1-2-2-3-3-2-2-1-1-------4--2--6--3--2-
Eb -------------0-0-2-2-3-3---------------------3-3-2-2--0--6--3--2-
Bb -0-0-1-1-4-4---------------------------------------------4--1--0-

Riff 3

Bb -----------------------------------------------------------------
F  -----------------------------------------------------------------
c# -----------------------------------------------------------------
Ab -------------------------------------------------3-3-2-2---------
Eb ---------------------------------------------------------3-3-2-2-
Bb -0-0-0-0-3-0-0-0-0-0-0-0-3-0-5-0-0-0-0-0-3-0-0-0-----------------

Riff 4

Bb -------------------------------------------------------------
F  -------------------------------------------------------------
c# -------------------------------------------------------------
Ab -------------------------------------------------3-2---------
Eb -----------------------------------------------------3-2-0---
Bb -0-3-4-4-5-7-0-3-4-4-5-7-0-3-4-4-5-7-0-3-4-4-5-7-----------4-

Riff 5

Bb -------------------------
F  -------------------------
c# -------------------------
Ab -------------------------
Eb -------------------------
Bb -0-0-3-0-3-4-0-0-3-0-3-4-
Comments