Cannibal Corpse - Vomit The Soul Chords & Tabs

 

Vomit The Soul Chords & Tabs

Cannibal Corpse Chords & Tabs

Version: 1 Type: Tab 0 ratings
1 star 2 stars 3 stars 4 stars 5 stars
comments

Vomit The Soul Tab

Band: Cannibal Corpse
Song: Vomit The Soul
Tabbed By: \JEB/,

tune down 1/2 step

intro (riff 1)
|------------------------------------|
|------------------------------------|
|------------------------------------|
|------------------2---------2-------|
|--5---6--3----5\--2-----5\--2-------|
|--3---4--1----3\0---0-0-3\0---0-0---|


riff 2
|---------------------------------------------------------|
|---------------------------------------------------------|
|---------------------------------------------------------|
|------2---------2---------2------^----^------------------|
|--5\--2-----5\--2-----5\--2-----3-4--2-3-----------------|
|--3\0---0-0-3\0---0-0-3\0---0-0--------------------------|


riff 3
|--------------------------------------------------------------|
|--------------------------------------------------------------|
|--------h--------------h--------------h-----------------------|
|-------2-3--h---------2-3--h---------2-3--h-------------------|
|-/5--------3-4--/5--------3-4--/5--------3-4--/5--------------|
|-/3-0-----------/3-0-----------/3-0-----------/3--000-000-000-|

[ Tab from: http://www.guitartabs.cc/tabs/c/cannibal_corpse/vomit_the_soul_tab.html ]
riff 4
|----------------------------------------------|
|----------------------------------------------|
|----------------------------------------------|
|----------------------------------------------|
|-5\---------5\---------7\---------6\----------|
|-3\-0-1-2-0-3\-0-1-2-0-5\-0-3-4-0-4-\-0-2-3-0-|
     . . . .    . . . .    . . . .     . . . .


riff 5
|---------------------------------------------------------|
|---------------------------------------------------------|
|---------------------------------------------------------|
|---------------------------------------------------------|
|-5\--------6\--------------5/6---------4/5---------------|
|-3\0-0-0-0-4\0-0-0-0-4-5-0-3/4-0-3-4-0-2/3---------------|
    . . . .   . . . . . . .     . . . .

riff 6
|---------------------------------------------------------|
|---------------------------------------------------------|
|---------------------------------------------------------|
|---------------------------------------------------------|
|---------------------------------------------------------|
|-(6)-(3)-(4)-(2)-(5)-(4)-(3)-(2)-------------------------|
Comments