Cannibal Corpse - Under The Rotted Flesh Chords & Tabs

 

Under The Rotted Flesh Chords & Tabs

Cannibal Corpse Chords & Tabs

Version: 2 Type: Tab 0 ratings
1 star 2 stars 3 stars 4 stars 5 stars
comments

Under The Rotted Flesh Tab

Band: Cannibal Corpse
Album: Butchered at Birth
Song: Under the Rotted Flesh

listen to the song to know when to tremolo pick and palm mute and such.

tune down 1/2 step

Riff:1
|-------------------------------------------------------------------|
|-------------------------------------------------------------------|
|------------------------------------------------------(3)----------|
|--------444----------------777-----(4)--------333-----(1)--------44|
|-----333---443--(3)-----777---887--(2)-----222---332----------333--|
|--222-----------(1)--666----------------111----------------222-----|

Cont.	     Riff:2
|-----------|-------------------------------------------------------|
|-----------|-------------------------------------------------------|
|-----------|-------------------------------------------------------|
|4-----(5)--|-------------------------------------------------------|
|-443--(3)--|----------------11111--22222-------66666--------33333--|
|-----------|--22222--11111---------------11111--------22222--------|

Riff:3                 Riff:4
|---------------------|---------------------------------------------|
|---------------------|---------------------------------------------|
|---------------------|---------------------------------------------|
|------3--------------|--------------------------333----------------|
|--222---4-3-5-4-3----|----222----------------222---443-------------|
|------------3-2-1-0--|-111---332-000-000-000-----------000-000-000-|

Cont.						  Riff:5
|------------------------------------------------|------------------|
|------------------------------------------------|------------------|
|------------------------------------------------|------------------|
|------777-------------------444-----------------|------4-----4-----|
|---666---887-------------333---554--------------|------3-----3-----|
|-------------0-0-0-0-0-0-----------000-000-000--|--000---000---000-|

Cont.		     Riff:6a		     Riff:6b
|-------------------|-----------------------|-----------------------|
|-------------------|-----------------------|-----------------------|
|-------------------|-----------p-p---------|------------p-p--------|
|-------------------|-----333--6-4-3--p-p---|-----777--10-8-7--p-p--|
|-------------------|--222-----------5-3-2--|--666------------9-7-6-|
|--000-000-0-0-000--|-----------------------|-----------------------|
[ Tab from: http://www.guitartabs.cc/tabs/c/cannibal_corpse/under_the_rotted_flesh_tab_ver_2.html ]
Riff:7                Riff:8    
|--------------------|----------------------------------------------|
|--------------------|----------------------------------------------|
|--------------------|----------------------------------------------|
|--------------------|----------------------------------------------|
|------1------5-4-3--|--------------------------------------333-----|
|--000---2-1--3-2-1--|--666-333-000---444-111-000---666-222-----222-|

Cont.
|-------------------------------------------------------------------|
|-------------------------------------------------------------------|
|-------------------------------------------------------------------|
|-------------------------------------------------------------------|
|--222--------------------------------------------------------------|
|------333-000---444-111-000---666-222-666-777---666-333-000--------|

Cont.
|-------------------------------------------------------------------|
|-------------------------------------------------------------------|
|-------------------------------------------------------------------|
|-------------------------------------------------------------------|
|----------------------------666---222------------------------------|
|--444-111-000---666-222-111-----------333-000---444-111-000--------|

Cont.
|-------------------------------------------------------------------|
|-------------------------------------------------------------------|
|-------------------------------------------------------------------|
|-------------------------------------------------------------------|
|--------------333---222---------------------------------333--------|
|--666-222-111-----------333-000---444-111-000---666-222-----222----|

Cont.
|-------------------------------------------------------------------|
|-------------------------------------------------------------------|
|-------------------------------------------------------------------|
|-------------------------------------------------------------------|
|--222--------------------------------------------------------------|
|------333-000---444-111-000---666-222-666-777---666-333-000--------|

Cont.                              Riff:9
|---------------------------------|---------------------------------|
|---------------------------------|---------------------------------|
|---------------------------------|---------------------------------|
|---------------------------------|--------------4-------------4-4--|
|----------------------------333--|--------------3-------------3-3--|
|--444-111-000---666-222-111------|--000-000-000---000-000-000------|

Riff:10 
|-------------------------------------------------------------------|
|-------------------------------------------------------------------|
|-------------------------------------------------------------------|
|--------------3-------------3-2------------------------------------|
|--------------4-------------4-3------------------------------------|
|--000-000-000---000-000-000----------------------------------------|
Comments