Cannibal Corpse - Puncture Wound Massacre Chords & Tabs

 

Puncture Wound Massacre Chords & Tabs

Cannibal Corpse Chords & Tabs

Version: 1 Type: Tab 0 ratings
1 star 2 stars 3 stars 4 stars 5 stars
comments

Puncture Wound Massacre Tab

Here's a tab I found for Punture Wound Massacre on some German site while
surfing for tabs a few weeks ago. I have no idea who the tabber is and I'm
not gonna take credit for it but I'm gonna post it anyway for those who
want to play it. I don't know if it's correct cause I haven't had much
time to try it out so hope it works out for people okay.

Bobby \m/

BAND: CANNIBAL CORPSE
SONG: PUNCTURE WOUND MASSACRE
ALBUM: VILE


Riff 1 4x
|-------------| Riff 1 |-------------------|
|-------------| 5 more |-------------------|
|-------------| times  |-------------------| Riff 1 4x
|-3---6\---3--|        |-3-2---------------|
|-1-5-4\-5515-|        |-1-0-5-2-/444-/444-|
|---3---033-3-|        |-----3-0-----------|
[ Tab from: http://www.guitartabs.cc/tabs/c/cannibal_corpse/puncture_wound_massacre_tab.html ]
Riff 2 2x
|-------------------------------------------------------------|
|-------------------------------------------------------------|
|-6--------------6--------------3-----------------------------|
|-6---3---5------6---3---5----6-3---3---5-----6---3---6-------|
|-4---3---5---58-4---3---5---54-1---3---5---5-4-5-1-5-4-5-3-2-|
|--0001000300036--000100030003---000100030003---3---3---3-1-0-|

Fill 1 Riff 3 2x 2 guitars
|--------||---------------------------------|-----------------------
|--------||---------------------------------|-----------------------
|--------||---------------------------------|-----------------------
|2-2-2-2-||3-------3-------3-------3--------|3----/2-3----/2-3----/2
|2-2-2-2-||1----/4-1----/4-1----/4-1-----44-|1----/4-1----/4-1----/4
|0-0-0-0-||-0000----0000----0000----00003---|-0000----0000----0000--

end of riff 3
2x 2x 6x
----------| |----------------| |-----------------| |------|
----------| |----------------| |-----------------| |------|
----------| |----------------| |-----------------| |------|
-3--------| |-3--------------| |-----------------| |-3----|
-1-----44-| |-3--555---------| |-1---------------| |-1532-|
--00003---| |-10033333330000-| |--03010-33330000-| |--310-|

Riff 2
Riff 3 4x but end it with this instead 
|------|
|------|
|------|
|-3332-|
|-3332-|
|-1110-|
Comments