Cannibal Corpse - Puncture Pulverized Chords & Tabs

 

Puncture Pulverized Chords & Tabs

Cannibal Corpse Chords & Tabs

Version: 1 Type: Tab 0 ratings
1 star 2 stars 3 stars 4 stars 5 stars
comments

Puncture Pulverized Tab

Puncture Pulverized
by: Cannibal Corpse
album: The Bleeding

.=palm mute
h=hammer on
p=pull off
tr - trill
/=slide up
\=slide down
() - ghost note(unless in trill)

Correct by Vield   26 may 2001
Tabbed by Eldis

                                 
Riff 1   (Intro)              1,3___________________________________ 
|--------------------------------------------------------------------|
|--------------------------------------------------------------------|
|--------------------------------------------------------------------|                                                        
|-4-5-3----11^0------------------11^0-111111111212121213131313121212-|                                                            
|-4-5-3---------1010101099998888-------------------------------------|                                                             
|-2-3-1--------------------------------------------------------------|
  . . .

2,4____________________________________  
|---------------------------------------|
|---------------------------------------|
|---------------------------------------| 
|-11^0-11111111131313131212121211111111-|
|---------------------------------------|
|---------------------------------------|


Riff 2 (Verse)
|-------------------------------------------------------------------------------|
|-------------------------------------------------------------------------------|
|-------------------------------------------------------------------------------|
|-------------------------------------------------------------------------------|
|-4^0--------------4^0-4444555566665555---4^0--------------4^0-4444666655554444-|
|-----333322221111----------------------------333322221111----------------------|
[ Tab from: http://www.guitartabs.cc/tabs/c/cannibal_corpse/puncture_pulverized_tab.html ]
                                                               
Riff 3 (Pre-Chorus)
|----------------------------------------------------------------------|
|----------------------------------------------------------------------|
|----------------------------------------------------------------------|
|----------------------------------------------------------------------|
|-4^0-------------4^0-4444555566665555---4^0---------------4/5\4-5/6\5-| 
|-----333322221111---------------------------333322221111--2/3\2-3/4\3-|


Riff 4 (Chorus)
|------------------------------------------------------------|
|------------------------------------------------------------|
|------------------------------------------------------------|
|--------------------------------------11^0------------------|
|-4/5\4-5/6\5-4/5\4-5/6\5-4/5\4-5/6\5-------1010101099998888-|
|-2/3\2-3/4\3-2/3\2-3/4\3-2/3\2-3/4\3------------------------|


Riff 5 (Bridge)
|-------------------------|
|-------------------------|
|---------A.H.------------|
|----------5---------A.H.-|
|-33332222-------4/5--5---|
|--------------0-2/3------|
               .

Riff 6 (post Bridge)
|------------------------|
|--------------A.H.------|
|---------A.H.--4--------|
|----------5-------------|
|-33332222---------4/5\4-|
|------------------2/3\2-|
   
     
Riff 7
1,2_______________          3,4________________________________
|---------------------------------------------------------------|
|---------------------------------------------------------------|
|---------------------------------------------------------------|
|------------------------------13131313121212121515151514141414-|
|-6666555588887777-4/5\4-5/6\5----------------------------------|
|------------------2/3\2-3/4\3----------------------------------|
Comments