Cannibal Corpse - Pounded Into Dust Chords & Tabs

 

Pounded Into Dust Chords & Tabs

Cannibal Corpse Chords & Tabs

Version: 1 Type: Tab 0 ratings
1 star 2 stars 3 stars 4 stars 5 stars
comments

Pounded Into Dust Tab

Cannibal corpse
"Pounded into dust"


Tune to Eb
Intro Riff
|------------------|----------------------|
|------------------|----------------------|
|------------------|--------------/10-/7--|
|------------------|----------------------|
|------------------|--------------/8--/5--|
|--88888---88888---|--88888---------------|

Intro Riff cont.
|-------------------------|--------------------------------------|
|-------------------------|--------------------------------------|
|-------------/10-/7--/5--|------------------------------/10-/7--|
|------------------------|--------------------------------------|
|--------------/8-/5--/3--|--4-----2-----5---------------/8--/5--|
|--88888-----------------|----222---222-----7-7-7-7-7-7---------|

[ Tab from: http://www.guitartabs.cc/tabs/c/cannibal_corpse/pounded_into_dust_tab.html ]
Verse Riff
|----------------------------------------------------|
|----------------------------------------------------|
|--------------------------------------7-----7-------|
|--------------------------6-----6-----7-----7-------|
|----555---555---555---552-6-----6-----5-----5-------|
|--6-----4-----7-----7-----4-777-4-777---777---777---|

Chorus Riff
|-----------------------------------|
|-----------------------------------|
|-----------------------------------|
|-----------------------------------|
|----2-5-2-3-2-5-2---2---2---2---2--|
|--1---------------1---4---4---4----|

[end 1]
|-----------------------------------|
|-----------------------------------|
|--------7--------------------------|
|--3-----7-----6\5-5\4-4\3----------|
|--3-222-5-222----------------------|
|--1-----------4\3-3\2-2\1-111111---|

[end 2]
|-----------------------------------|
|-----------------------------------|
|-----------------------------------|
|-----------------------------------|
|--5-2---2---2----------------------|
|------1---0---0-7-77777---77777----|

Outro Riff
|----------------------------------|
|----------------------------------|
|----------------------------------|
|----------------------------------|
|--------555555------888888----5---|
|--111111------444444------7-1-----|
Comments