Cannibal Corpse - Pounded Into Dust Chords & Tabs

 

Pounded Into Dust Chords & Tabs

Cannibal Corpse Chords & Tabs

Version: 1 Type: Bass Tab 0 ratings
1 star 2 stars 3 stars 4 stars 5 stars
comments

Pounded Into Dust Bass Tab

Fig. 1
|-------------------|
|-------------------|
|-------------------|
|-------------------|
|110--110--110--6--3|

[end 1]
|----------------------|
|----------------------|
|----------------------|
|----------------------|
|6--3--6--3--6--3--6--3|

[end 2]
|----------------------|
|----------------------|
|8--5--8--5--8--5--8--5|
|----------------------|
|----------------------|

Fig. 2
|--------------|
|--------------|
|--------------|
|--------------|
|11110--6--3--1|

Fig. 3
|-------------------------------|
|-------------------------------|
|4-----2-----5------------------|
|--222---222--------------------|
|--------------0-0-0-0-0-0--6--3|
[ Tab from: http://www.guitartabs.cc/tabs/c/cannibal_corpse/pounded_into_dust_btab.html ]
Fig. 4
|-----------------------------------------------|
|-----------------------------------------------|
|-----------------------------------------------|
|6-----4-----7-----7-----4-----4----------------|
|--333---333---333---330---000---000-3-000-3-000|

Fig. 5
|-------------------------------|
|-------------------------------|
|-------------------------------|
|--------------------4---4---4--|
|6-0-3-0-1-0-3-0-6-0---0---0---0|

[end 1]
|------------------------------|
|------------------------------|
|------------------------------|
|------------43-32-21-111111|
|6-000-3-000-------------------|

[end 2]
|----------------------------|
|----------------------------|
|----------------------------|
|--------7---7---------------|
|3-0-6-0---0---0-11110--11110|

Fig. 6
|-----------------------------|
|-----------------------------|
|------555555------888888-----|
|111111------444444------7----|
|--------------------------6-3|
Comments