Cannibal Corpse - Necropedophile Chords & Tabs

 

Necropedophile Chords & Tabs

Cannibal Corpse Chords & Tabs

Version: 1 Type: Tab 0 ratings
1 star 2 stars 3 stars 4 stars 5 stars
comments

Necropedophile Tab

   
Email  for any question

=================================================================================================
Song: Necropedophile
Artist: Cannibal Corpse
Album: Tomb of the Mutilated (1992)

Tabbed by Chris Rezendes (dudemcrude@yahoo.com)

Tuning: Half Step Down

Notation Key
v: vibrato
t: tremolo bar
^: bend
.: palm mute
~: trill
p: pull-off
h: hammer-on
x: ghost note
/: slide up
\: slide down

Comments:  This song is pretty easy.  So just have fun with it.  If you spot a mistake, point it out to me and I'll fix it.  Later.
=================================================================================================

Riff 1 x6
e|-------------------|-------------------|-------------------|------------------|
B|-------------------|-------------------|-------------------|------------------|
G|-------------------|-------------------|-------------------|------------------|
D|-------------------|-------------------|-------------------|------2-3----2-3--|
A|--2h3--------------|--2h3--------------|--2h3--------------|------0h1----0h1--|
E|------1h2-2h3-3h4--|------1h2-2h3-3h4--|------1h2-2h3-3h4--|--000-----00------|

Riff 2 x1
e|-----------------------------------|-----------------------------------|
B|-----------------------------------|-----------------------------------|
G|-----------------------------------|-----------------------------------|
D|--------------------------------1--|--------------------------------0--|
A|------------------2h3p2---------1--|------------------2h3p2---------0--|
E|--000-222-111-000-------000-000----|--000-222-111-000-------000-000----|

e|-----------------------------------|-------------------------------|
B|-----------------------------------|-------------------------------|
G|-----------------------------------|-------------------------------|
D|--------------------------------1--|----------------------------0--|
A|------------------2h3p2---------1--|------------------2h3p2-----0--|
E|--000-222-111-000-------000-000----|--000-222-111-000--------------|

Repeat Riff 1 x4
Repeat Riff 2 x1

Fig. 1 x4
e|---------------------|-----------------|
B|---------------------|-----------------|
G|---------------------|-----------------|
D|---------------------|--------------0--|
A|--------------2h3p2--|--------------0--|
E|--2-2-2-1-1-1--------|--2-2-2-1-1-1----|
[ Tab from: http://www.guitartabs.cc/tabs/c/cannibal_corpse/necropedophile_tab.html ]
Fig. 2 x4
e|---------------------------------------|
B|---------------------------------------|
G|---------------------------------------|
D|---------------------------------------|
A|--------------------------------2h3p2--|
E|--1-1-1-0-0-0-2-2-2-2-2-2-1-1-1--------|

Riff 3 x4
e|-------------------------------------|
B|-------------------------------------|
G|-------------------------------------|
D|-------------------------------------|
A|------------------------------2h3p2--|
E|--111-111-000-222-222-222-111--------|

Repeat Riff 2 x1
Repeat Fig. 1 x4
Repeat Fig. 2 x4

Fig. 3 x2
e|-----------------------------------------------------------------------|
B|-----------------------------------------------------------------------|
G|-----------------------------------------------------------------------|
D|-----------------------------------------------------------------------|
A|----------------------------------------------------------------2h3p2--|
E|--2-2-2-1-1-1-1-1-1-1-1-1-1-1-1-1-1-1-1-0-0-0-2-2-2-2-2-2-1-1-1--------|

Repeat Riff 1 x4
Repeat Riff 2 x1
Repeat Fig. 3 x2

Riff 4 x
e|---------------------------------------------------------------------|
B|---------------------------------------------------------------------|
G|---------------------------------------------------------------------|
D|---------------------------------------------------------------------|
A|--------------------------------------------------------------2h3p2--|
E|--222-222-111-111-111-111-111-111-111-111-000-222-222-222-111--------|

Riff 5 x4
e|---------------------------------------------------------------|
B|---------------------------------------------------------------|
G|---------------------------------------------------------------|
D|---------------------------------------------------------------|
A|--0h1-----0h1-----2h3-----2h3-----1h2-----1h2-----4h5-----1h2--|
E|------000-----000-----000-----000-----000-----000-----000------|

Fill 1 x1
e|-----|-----|-----|--------|
B|-----|-----|-----|--------|
G|-----|-----|-----|--------|
D|--3--|--5--|--4--|--8--4--|
A|--1--|--3--|--2--|--6--2--|
E|-----|-----|-----|--------|

Repeat Riff 5 x1

Fill 2 x1
e|---------------|
B|---------------|
G|---------------|
D|------3-----3--|
A|------1-----1--|
E|--000---000----|

Repeat Riff 1 x4

End x1
e|-----|
B|-----|
G|-----|
D|--2--|
A|--2--|
E|--0--
Comments