Cannibal Corpse - Mummified In Barbed Wire Chords & Tabs

 

Mummified In Barbed Wire Chords & Tabs

Cannibal Corpse Chords & Tabs

Version: 1 Type: Tab 0 ratings
1 star 2 stars 3 stars 4 stars 5 stars
comments

Mummified In Barbed Wire Tab

This is a tablature of one of my favorite Cannibal Corpse songs, "Mummified in Barbed Wire".
Off of the album "Vile".

Tabbed by Chris Rezendes

I’ve been working on it for at least six months now, so I hope it is right. Tune to a drop-Db 
(if your guitar is in standard tuning, put it in a dropped D, and then tune it down one half 
step).   The top three strings will be omitted.

I may have missed something or gotten something incorrect, in which case you can contact me at 
dadmcbad@hotmail.com.  This is only my second tab, so please don’t send me death threats if I 
butchered it.  I can also be reached at harveycoast2coas on aol messenger. ;)
  
First verse (Wrap the wire ’round the neck…)                                                                                  
-------------------------------------------------------------------    
--0--6--0--6--0--6-------------------------------------------------   
--0--6--0--6--0--6---4-0-3-0-5-0-2-0-4-0-3-0-6-0-3-0-4-0-3-0-5-0-3-
              
              Play this after verse 
-------------------------------------------------------------       
-0--6--0--6--0--6--2-1--1--2-1--1--2-1--1--2-1--1--2-1-------          
-0--6--0--6--0--6--2p1--1--2p1--1--2p1--1--2p1--1--2p1-------
             
             Play after that
---------------------------------------------------------------------- 
----2--1--0--6--5--4-------------------------------------------------- 
----2--1--0--6--5--4----------------2-1-0-2-1-0-4-2-0-6-3-0-----------
[ Tab from: http://www.guitartabs.cc/tabs/c/cannibal_corpse/mummified_in_barbed_wire_tab.html ]
Rhythm Fig. 1A (Jagged cable binds, you scream…)              
------------------------------------------------------------               
---5---5---5---5--------------5---5---5---5-----------------   
---6-0-6-0-6-0-6--00000000----6-0-6-0-6-0-6-000-7-000-3-----
              
Rhythm Fig. 1B (Tear apart the tendons, wire chokes the victim…)
--------------------------------------------------------------                               
--3---3---3--4--3--2--1-------3---3---3------7-h-9-----2-p-0--                                
--3-0-3-0-3---6--5--4--3------3-0-3-0-3--0-0-------0-0--------
               
Rhythm Fig. 1C (Lacerate, sharp spikes rip…)
----------------------------------------                                          
----9---9---9--------6-------3----------
--0-9-0-9-0-9---000--6--000--3----------

(Mummified in barbed wire, breathing stops, life expires…)
-------------------------------------------------------------|--------
--2-1-0-6-5-3--2p1-1-2p1-1-2p1-1-2p1-1-2p1--|-------------------------
--2-1-0-6-5-3--2p1-1-2p1-1-2p1-1-2p1-1-2p1--|-2-1-0-2-1-0-4-2-0-6-3-0-
    
 Play a bunch of times-   The other guitar starts to play this-
-------------------------|---------------------------------
-------------------------|-------------------------2-------
-6-5-3-0-6-0-------------|--0--0--0--3----0--0--0----------
     
Interlude (Steel wraps your face, blood soaks the steel…)
-------------------------------------------------------
----2-p-1---2-p-1---2-p-1---2-p-1---2-p-1---2-p-1------
----2-p-1---2-p-1---2-p-1---2-p-1---2-p-1---2-p-1------  
   
  Under solo-
--------------------------------------------
---6------4-h-5--6-----6-------------------
---6-0-0---------6-0-0-6-0-0---------------


THIS TAB IS OLD.  IF YOU WANT, YOU CAN UPDATE IT, PRESUMING THERE ARE MISTAKES, WHICH THERE PROBABLY ARE.  I JUST WANTED TO GIVE WHAT I HAD DONE.
Comments