Cannibal Corpse - I Will Kill You Chords & Tabs

 

I Will Kill You Chords & Tabs

Cannibal Corpse Chords & Tabs

Version: 1 Type: Tab 0 ratings
1 star 2 stars 3 stars 4 stars 5 stars
comments

I Will Kill You Tab

    Artist:Cannibal Corpse 
    Song:"I Will Kill You" ; (Albom:"Gallery Of Suiside") 
    Tabbed  by:Scullfucker (Zeevl_shevach@tel-aviv.k12.il) 
     have fun...and  CANNIBAL CORPSE RULLES!!!!! 


  I didn't do riffs, i just tabbed the whole song the way it is played. 


|------------------------------------------------------------------- 
|------------------------------------------------------------------- 
|------------------------------------------------------------------- 
|------------------------------------------------------------------- 
|-------------------44444444333333332222----------4444444433333333-- 
|--1111111122222222----------------------11111111------------------- 




|-------------------------------------------------------------------------------- 
|-------------------------------------------------------------------------------- 
|-------------------------------------------------------------------------------- 
|-------------------------------------------------------------------------------- 
|2-2-2-2--3--2-2-2-2------------------44444444333333332222--------44444444888888- 
|0-0-0-0-----0-0-0-0--1111111122222222--------------------11111111--------------- 
 [pm...]     [pm...] 



|------------------------------------------------------------------ 
|------------------------------------------------------------------ 
|------------------------------------------------------------------ 
|------------------------------------------------------------------ 
|2-2-2-2--5555558888777777---888888--2-2-2-2----5555558888444444--- 
|0-0-0-0-----------------------------0-0-0-0----------------------- 
 [pm...]                    [pm...] 


|-------------------------------------------------------------- 
|-------------------------------------------------------------- 
|-------------------------------------------------------------- 
|-333333335555555588888888777777772222333333338888888877777777- 
|-333333335555555588888888777777772222333333338888888877777777- 
|-------------------------------------------------------------- 



|--------------------------------------------------------- 
|--------------------------------------------------------- 
|--------------------------------------------------------- 
|--------------------------------------------------------- 
|2-2-2-2----(55555588887777775555558888444444) x 4-------- 
|0-0-0-0----------(the second 2 times do in [pm])--------- 
 [pm...] 


|--------------------------------------------------------- 
|--------------------------------------------------------- 
|--------------------------------------------------------- 
|--------------------------------------------------------- 
|-7--5--9-4--5-----2--222----(------3344556656655)-x 2---- 
|-5--3--7-6--3-----0--000----(223344-------------)-x 2---- 
                   [pm..]    (to play fast......) 

|--------------------------------------------------------- 
|--------------------------------------------------------- 
|--------------------------------------------------------- 
|--------------------------------------------------------- 
|-7--5--9--6-----2--222----(------3344556656655)-x 2------ 
|-5--3--7--4-----0--000----(223344-------------)-x 2------ 
                 [pm..]    (to play fast......) 



|----------------------------------------------------------------------------- 
|----------------------------------------------------------------------------- 
|----------------------------------------------------------------------------- 
|----------------333333335555555588888888777777772222333333338888888877777777- 
|-7--5--9-6--5---333333335555555588888888777777772222333333338888888877777777- 
|-5--3--7-4--3---------------------------------------------------------------- 


|---------------------------------------------------------------------------------- 
|---------------------------------------------------------------------------------- 
|---------------------------------------------------------------------------------- 
|---------------------333333335555555588888888777777772222333333338888888877777777- 
|-2-2-2-2--3--2-2-2-2-333333335555555588888888777777772222333333338888888877777777- 
|-0-0-0-0-----0-0-0-0-------------------------------------------------------------- 
  [pm...]     [pm...] 

[ Tab from: http://www.guitartabs.cc/tabs/c/cannibal_corpse/i_will_kill_you_tab.html ]
|--------------------------------------------------------------------------- 
|--------------------------------------------------------------------------- 
|--------------------------------------------------------------------------- 
|--------------------------------------------------------------------------- 
|-888888--2-2-2-2--5555558888777777---888888--2-2-2-2----5555558888444444--- 
|---------0-0-0-0-----------------------------0-0-0-0----------------------- 
          [pm...] 

|-------------------------------------------------------------- 
|-------------------------------------------------------------- 
|-------------------------------------------------------------- 
|-333333335555555588888888777777772222333333338888888877777777- 
|-333333335555555588888888777777772222333333338888888877777777- 
|-------------------------------------------------------------- 


|-------------------------------------------------------------- 
|-------------------------------------------------------------- 
|-------------------------------------------------------------- 
|-------------------------------------------------------------- 
|-888888-2-2-2-2----(55555588887777775555558888444444) x 4----- 
|--------0-0-0-0----------(the last 2 times do in [pm])-------- 
         [pm...] 


|-------------------------------------------------------------- 
|-------------------------------------------------------------- 
|-------------------------------------------------------------- 
|-------------------------------------------------------------- 
|-7--5--9-6--5-----2--222----(------3344556656655)-x 2--------- 
|-5--3--7-4--3-----0--000----(223344-------------)-x 2--------- 
                   [pm..]    (to play fast.......) 


|-------------------------------------------------------------- 
|-------------------------------------------------------------- 
|-------------------------------------------------------------- 
|-------------------------------------------------------------- 
|-7--5--9--6-----2--222----(------3344556656655)-x 2----------- 
|-5--3--7--4-----0--000----(223344-------------)-x 2----------- 
                 [pm..]    (to play fast.......) 


|-------------------------------------------------------------- 
|-------------------------------------------------------------- 
|-------------------------------------------------------------- 
|-------------------------------------------------------------- 
|-7--5--9-6--5-----2--222----(------3344556656655)-x 2--------- 
|-5--3--7-4--3-----0--000----(223344-------------)-x 2--------- 
                   [pm..]    (to play fast.......) 

  
|-------------------------------------------------------------- 
|-------------------------------------------------------------- 
|-------------------------------------------------------------- 
|-------------------------------------------------------------- 
|-7--5--9--6-----2--222----(------3344556656655)-x 4----------- 
|-5--3--7--4-----0--000----(223344-------------)-x 4----------- 
                 [pm..]    (to play fast.......) 


|--------------------------------------------------------------- 
|--------------------------------------------------------------- 
|--------------------------------------------------------------- 
|--(88888888----------------)-x 8------------------------------- 
|--(77777777------2222222222)-x 8------------------------------- 
|--(--------------0000000000)-x 8------------------------------- 


|-------------------------------------------------------------- 
|-------------------------------------------------------------- 
|-------------------------------------------------------------- 
|-8888888----------------------2/3--3-3------------------------ 
|-7777777-----2-2-2-2-2-2-2-2---------------------------------- 
|-------------0-0-0-0-0-0-0-0---------------------------------- 
              [pm...........] 

|-------------------------------------------------------------- 
|-------------------------------------------------------------- 
|-------------------------------------------------------------- 
|--(88888888----------------)-x 4------------------------------ 
|--(77777777------2222222222)-x 4------------------------------ 
|--(--------------0000000000)-x 4------------------------------ 



|------------------------------------------------------------------ 
|------------------------------------------------------------------ 
|------------------------------------------------------------------ 
|-88888888--------------------------------------------------------- 
|-77777777---7--5--9-6--5-----2--222----(------3344556656655)-x 4-- 
|------------5--3--7-4--3-----0--000----(223344-------------)-x 4-- 
                              [pm..]    (to play fast.......) 

- 
 end it with --2\---- 
             --0\---- 

Cookie! 

     Scullfucker. 


Comments