Cannibal Corpse - Hammer Smashed Face Chords & Tabs

 

Hammer Smashed Face Chords & Tabs

Cannibal Corpse Chords & Tabs

Version: 6 Type: Tab 0 ratings
1 star 2 stars 3 stars 4 stars 5 stars
comments

Hammer Smashed Face Tab

   
Cannibal Corpse - Hammer Smashed Face
Album:Tomb of the Mutilated (1992)
Tabbed by:Jordan Brooks (weinersandbeans@hotmail.com)

  h=hammer on
  p=pull off
  pm=palm mute
  /=slide
  ph=pinch harmonic
  
         3x              1x
  |--------------|-----------------|
  |--------------|-----------------|
  |--------------|-----------------| Riff A 1x
  |--------------|---------555-444-|
  |-2--2--2--6/3-|-----------------|
  |-0--0--0--6/3-|-000-222---------|
                   pm. ... ph. ...
           
           3x              1x
  |-----------------|-----------------|
  |-----------------|-----------------|
  |-----------------|-----------------| Riff B 2x
  |-----------------|---------555-444-|
  |-------------6/3-|-----------------|
  |-000-000-000-6/3-|-000-222---------|
    pm. ... ...       pm. ... ph. ...


  |--------------------------------------|
  |--------------------------------------|
  |--------------------------------------| Riff C 1x
  |--------------------------------------|
  |------------------------------------2-|
  |-000000000000000000000000000000000000-|
    pm.................................

  
  (bass solo)

  
  |-----------------|
  |-----------------|
  |-----------------| Riff D 4x
  |-----9-----------|
  |-7h6---8---8-----|
  |---------7---5h6-|
          h   h


  |-----------------|
  |-----------------|
  |-----------------| Riff E 4x
  |-----4-----------|
  |-2h1---1-2-------|
  |-----------1p0h1-|
          h   h

 
  |-----------------|
  |-----------------|
  |-----------------| Riff D 3x
  |-----9-----------|
  |-7h6---8---8-----|
  |---------7---5h6-|
          h   h

  
  |-----------------|
  |-----------------|
  |-----------------| Riff F 1x
  |-----9-----------|
  |-7h6---8---8-----|
  |---------7---6p0-|
          h   h h


  |-----------|
  |-----------|
  |-----------| Riff G 8x
  |-----------|
  |-4/5/4-1---|
  |-2/3/2---0-|
          ph


  |------|
  |------|
  |------| Riff H 1x
  |-22-2-|
  |-22-2-|
  |-00-0-|
    pm


  |---------------------------------------------|
  |----------------3----------------------------|
  |----------------2---------------------3------| Riff I 2x
  |-2h5p2-1h4p1----0----5----------------3----2-|
  |-------------00-0----5-3h6p3-2h5p2----1----2-|
  |------------------00-3-------------33---00-0-|
                pm   pm               pm   pm


  |-----------------------|
  |-----------------------|
  |-----------------------| Riff J 4x
  |-----------------------|
  |-2h5p2-1h4p1-4/5/4-1---|
  |-------------2/3/2---0-|
                      ph


  |------|
  |------|
  |------| Riff H 1x
  |-22-2-|
  |-22-2-|
  |-00-0-|
    pm


  |---------------------------------------------|
  |----------------3----------------------------|
  |----------------2---------------------3------| Riff I 2x
  |-2h5p2-1h4p1----0----5----------------3----2-|
  |-------------00-0----5-3h6p3-2h5p2----1----2-|
  |------------------00-3-------------33---00-0-|
                pm   pm               pm   pm


  |-----------|
  |-----------|
  |-----------| Riff G 8x
  |-----------|
  |-4/5/4-1---|
  |-2/3/2---0-|
          ph

         3x              1x
  |--------------|-----------------|
  |--------------|-----------------|
  |--------------|-----------------| Riff A 1x
  |--------------|---------555-444-|
  |-2--2--2--6/3-|-----------------|
  |-0--0--0--6/3-|-000-222---------|
                   pm. ... ph. ...
  
           2x           2x
  |-----------------|-------|
  |-----------------|-------|
  |-----------------|-------| Riff K 1x
  |---------555-444-|-----4-|
  |-222-444---------|-222-4-|
  |-000-222---------|-000-2-|
            ph. ...   pm.

           3x           2x
  |-----------------|-------|
  |-----------------|-------|
  |-----------------|-------| Riff K2 3x
  |---------555-444-|-----4-|
  |-222-444---------|-222-4-|
  |-000-222---------|-000-2-|
            ph. ...   pm.


  |-----------------|
  |-----------------|
  |-----------------| Riff E 4x
  |-----4-----------|
  |-2h1---1-2-------|
  |-----------1p0h1-|
          h   h
[ Tab from: http://www.guitartabs.cc/tabs/c/cannibal_corpse/hammer_smashed_face_tab_ver_6.html ]
  |-----------------|
  |-----------------|
  |-----------------| Riff D 3x
  |-----9-----------|
  |-7h6---8---8-----|
  |---------7---5h6-|
          h   h

  
  |-----------------|
  |-----------------|
  |-----------------| Riff F 1x
  |-----9-----------|
  |-7h6---8---8-----|
  |---------7---6p0-|
          h   h h


  |-----------|
  |-----------|
  |-----------| Riff G 8x
  |-----------|
  |-4/5/4-1---|
  |-2/3/2---0-|
          ph


  |------|
  |------|
  |------| Riff H 1x
  |-22-2-|
  |-22-2-|
  |-00-0-|
    pm


  |---------------------------------------------|
  |----------------3----------------------------|
  |----------------2---------------------3------| Riff I 2x
  |-2h5p2-1h4p1----0----5----------------3----2-|
  |-------------00-0----5-3h6p3-2h5p2----1----2-|
  |------------------00-3-------------33---00-0-|
                pm   pm               pm   pm


  |-----------------------|
  |-----------------------|
  |-----------------------| Riff J 4x
  |-----------------------|
  |-2h5p2-1h4p1-4/5/4-1---|
  |-------------2/3/2---0-|
                      ph


  |------|
  |------|
  |------| Riff H 1x
  |-22-2-|
  |-22-2-|
  |-00-0-|
    pm


  |---------------------------------------------|
  |----------------3----------------------------|
  |----------------2---------------------3------| Riff I 2x
  |-2h5p2-1h4p1----0----5----------------3----2-|
  |-------------00-0----5-3h6p3-2h5p2----1----2-|
  |------------------00-3-------------33---00-0-|
                pm   pm               pm   pm


  |-----------|
  |-----------|
  |-----------| Riff G 8x
  |-----------|
  |-4/5/4-1---|
  |-2/3/2---0-|
          ph

         3x              
  |--------------|
  |--------------|
  |--------------| Riff L 1x
  |--------------|
  |-2--2--2--6/3-|
  |-0--0--0--6/3-|
                   
  

  |---------------------------|
  |---------------------------|
  |---------------------------| Riff M 4x
  |---------------------------|
  |-2--2--2-----------4-8-6/3-|
  |-0--0--0-2h3p2h3p2-2-6-6/3-|
    pm .  .           pm.


   
  |---------------------------|
  |---------------------------|
  |---------------------------| Guitar One
  |---------------------------|
  |-2--2--2-----------4-8-6/3-|
  |-0--0--0-2h3p2h3p2-2-6-6/3-|
  | pm .  .           pm.     | Riff N 4x
  |                           |
  |---------------------------|
  |---------------------------|
  |---------------------------| Guitar Two
  |---------3h4p3h4p3---------|
  |-2--2--2-----------4-8-6/3-|
  |-0--0--0-----------2-6-6/3-|
    pm .  .           pm.


  |---------------------------|
  |---------------------------|
  |---------------------------| Riff M 4x
  |---------------------------|
  |-2--2--2-----------4-8-6/3-|
  |-0--0--0-2h3p2h3p2-2-6-6/3-|
    pm .  .           pm.


  |---------------------------------------------|
  |---------------------3-----------------------|
  |-------------------4-2---------------------3-| Riff O 2x
  |-2222-55-22-11-4p1-4-0-------------------5-3-|
  |-------------------2---3333-66-33-22-5p2-5-1-|
  |-----------------------------------------3---|
    ph.. .. .. .. . .     ph.. .. .. .. . .


  |-------------------------|
  |-------------------------|
  |-----------------------3-| Riff P 4x
  |---------------------5-3-|
  |-2222-5555-1111-4444-5-1-|
  |---------------------3---|
    ph.. .... .... ....


  |---------------------------------------------|
  |---------------------3-----------------------|
  |-------------------4-2---------------------3-| Riff O 2x
  |-2222-55-22-11-4p1-4-0-------------------5-3-|
  |-------------------2---3333-66-33-22-5p2-5-1-|
  |-----------------------------------------3---|
    ph.. .. .. .. . .     ph.. .. .. .. . .


  |-----------------------|
  |-----------------------|
  |-----------------------| Riff J 4x
  |-----------------------|
  |-2h5p2-1h4p1-4/5/4-1---|
  |-------------2/3/2---0-|
                      ph

  
  |-----------|
  |-----------|
  |-----------| Riff G 8x
  |-----------|
  |-4/5/4-1---|
  |-2/3/2---0-|
          ph


  |----------------|
  |----------------|
  |----------------| Riff Q 1x
  |----------------|
  |-2--2--2--6/3-2-|
  |-0--0--0--6/3-0-|
Comments