Cannibal Corpse - Gutted Chords & Tabs

 

Gutted Chords & Tabs

Cannibal Corpse Chords & Tabs

Version: 1 Type: Tab 0 ratings
1 star 2 stars 3 stars 4 stars 5 stars
comments

Gutted Tab

Cannibal Corpse - Gutted
Submitted By: Sqweeky
EMail: Blindside831@aol.com
Butchered at Birth
Transcribed by Mike Kimball Oct. 2001
[bloodmetalcontent@yahoo.com]
[geocities.com/bloodmetalcontent]

As with all guitar tablature, a mono-spaced font
(e.g. Courier or Monaco) is required to display properly...


Fig. 1
|---------------------------
|---------------------------
|---------------------------
|---------------------------
|--------2-1-0-4-3-0-3-2-0--
|--2-1-0--------------------


Fig. 2
|-------------------|------------------|------------------|
|-------------------|------------------|------------------|
|-------------------|------------------|------------------|
|-------------------|------------------|------------------|
|----------21004300-|-1111111132002100-|---------32002100-|
|--22222222---------|------------------|-11111111---------|

Fig. 3
|-------------------|------------------|------------------|
|--------[A]--------|-------[B]--------|-------[C]--------|
|-------------------|------------------|------------------|
|-------------------|------------------|------------------|
|----------7\6-5----|-------------4----|---------5\4-3----|
|--0-0-0-0-5\4-3----|-0-0-0-0-0-1------|-0-0-0-0-3\2-1----|

[Variations: ABCB, AACB]

Fig. 4
|--------------|--------------|
|--------------|--------------|
|--------------|--------------|
|--------------|--------------|
|--7--6--7--8--|--------------|
|--5--4--5-----|-2----3tr4----|


Fig. 5
|----------------------------|
|----------------------------|
|----------------------------|
|----------------------------|
|--7--6--7--8-----12-----11--|
|--5--4--5-----9------8------|

[ Tab from: http://www.guitartabs.cc/tabs/c/cannibal_corpse/gutted_tab.html ]
Fig. 6
|---------------------------------------------------|
|---------------------------------------------------|
|---------------------------------------------------|
|---------------------------------------------------|
|---------------------------------------------------|
|--000000111111444444333333000000444444333333000000-|

|---------------------------------------------------------|---
|---------------------------------------------------------|---
|---------------------------------------------------------|---
|---------------------------------------------------------|-3-
|---------------------------------------------------------|-3-
|--111111000000111111444444333333000000444444333333000000-|-1-


Fig. 7
|--------------------------------------------------------------------|-------------|
|--------------------------------------------------------------------|-------------|
|--------------------------------------------------------------------|-------------|
|--------------------------------------------------------------------|-------------|
|------------------8-4tr5--3tr4--5-5-5-4-4-4-2tr3--1tr2--3-3-3-2-2-2-|-------------|
|--5tr6--4tr5--4-5---------------3-3-3-2-2-2-------------1-1-1-0-0-0-|-5tr6--4tr5--|


|--------------------------------------------------
|--------------------------------------------------
|--------------------------------------------------
|--------------------------------------------------
|--5-5-5-4-4-4-2tr3--1tr2--3-3-3-2-2-2-------------
|--3-3-3-2-2-2-------------1-1-1-0-0-0-5tr6--4tr5--

Fig. 8
|----------------------------------------------------
|----------------------------------------------------
|----------------------------------------------------
|----------------------------------------------------
|----------------------------------------------------
|--000000003200210000000000430032000000000032002100--

|--------------------
|--------------------
|--------------------
|--------------------
|--------------------
|--0000000021002100--

Fig. 9
|------------------------------------
|------------------------------------
|--------------4---------------------
|--5-----------4-----------5------4--
|--5-----------2-----------5------4--
|--3-----------2-----------3------2--
Comments