Cannibal Corpse - Fucked With A Knife Chords & Tabs

 

Fucked With A Knife Chords & Tabs

Cannibal Corpse Chords & Tabs

Version: 2 Type: Tab 0 ratings
1 star 2 stars 3 stars 4 stars 5 stars
comments

Fucked With A Knife Tab

   
                               FUCKED WITH A KNIFE
                         As recorded by Cannibal Corpse
                       (From the 1994 Album THE BLEEDING)

Words by Paul Mazurkiewicz and Chris Barnes

Music by Alex Webster, Jack Owen, Rob Barrett
Arranged by Cannibal Corpse
Transcribed by Ethereal Sin

Gtr I (Eb Ab Db Gb Bb Eb) - 'Untitled'
Gtr II (Eb Ab Db Gb Bb Eb) - 'Untitled'


 Intro
  Q=235                            1.,2.,3.              4.
              N.C.                                                      Eb5/Bb
 3/4         4/4
  Gtrs I, II
              PM--|    PM--|       PM--|    PM--|        PM--|    PM--|
  H    Q      S S E Q  S S E  Q    S S E Q  S S E Q   4x S S E Q  S S E Q
|---------||---------------------|--------------------||---------------------|
|---------||o--------------------|-------------------o||---------------------|
|---------||---------------------|--------------------||---------------------|
|---------||---------------------|--------------------||----------------8----|
|---------||o-------7--------10--|-------7--------6--o||-------7--------6----|
|---------||--6-6-7----6-6-7-----|-6-6-7----6-6-7-----||-6-6-7----6-6-7-6----|


                         Verse
                     Bb5  N.C.                          Bb5
                          PM--------------------------|
  W          H    Q  Q    E E E E E E E E   E E E E E E Q
|----------|------------|-----------------|----------------|
|----------|------------|-----------------|----------------|
|----------|------------|-----------------|----------------|
|----------|---------8--|-----------------|-------------8--|
|----------|---------8--|-----------------|-------------8--|
|----------|---------6--|-7-0-6-0-7-0-3-0-|-2-0-3-0-6-6-6--|
Bass Riff

  N.C.                            Bb5  N.C.                          Bb5
  PM----------------------------|      PM--------------------------|
  E E E E E E E E   E E E E S S E Q    E E E E E E E E   E E E E E E Q
|-----------------|------------------|-----------------|----------------|
|-----------------|------------------|-----------------|----------------|
|-----------------|------------------|-----------------|----------------|
|-----------------|---------------8--|-----------------|-------------8--|
|-----------------|---------------8--|-----------------|-------------8--|
|-7-0-6-0-7-0-9-0-|-6-0-7-0-7-6-0-6--|-7-0-6-0-7-0-4-7-|-5-5-5-8-6-6-6--|


  N.C.                            Bb5  N.C.                          Bb5
  PM----------------------------|      PM--------------------------|
  E E E E E E E E   E E E E S S E Q    E E E E E E E E   E E E E E E Q
|-----------------|------------------|-----------------|----------------|
|-----------------|------------------|-----------------|----------------|
|-----------------|------------------|-----------------|----------------|
|-----------------|---------------8--|-----------------|-------------8--|
|-----------------|---------------8--|-----------------|-------------8--|
|-7-0-6-0-7-0-9-0-|-6-0-7-0-7-6-0-6--|-7-0-6-0-7-0-3-0-|-2-0-3-0-6-6-6--|


  N.C.                            Bb5  N.C.
                                                        3/4
  PM----------------------------|      PM--------------------------|
  E E E E E E E E   E E E E S S E Q    E E E E E E E E   E E E E E E
|-----------------|------------------|-----------------|-------------|
|-----------------|------------------|-----------------|-------------|
|-----------------|------------------|-----------------|-------------|
|-----------------|---------------8--|-----------------|-------------|
|-----------------|---------------8--|-----------------|-------------|
|-7-0-6-0-7-0-9-0-|-6-0-7-0-7-6-0-6--|-7-0-6-0-7-0-4-7-|-5-5-5-8-6-6-|


   Pre-Chorus
    N.C.
   4/4
    PM|     PM|       PM|     PM|       PM|     PM|       PM|     PM|
    E E E E E E E E   E E E E E E E E   E E E E E E E E   E E E E E E E E
||------------------|-----------------|-----------------|-------------------||
||o-----------------|-----------------|-----------------|------------------o||
||------------------|-----------------|-----------------|-------------------||
||------------------|-----------------|-----------------|-------------------||
||o-----3-------3---|-----3-------3---|-----3-------3---|-----3-------1----o||
||--0-0---4-0-0---4-|-0-0---4-0-0---2-|-0-0---4-0-0---4-|-0-0---2-0-0---2---||


            Bridge
      E5     N.C.                G5    N.C.              E5
 2/4        5/4
  E E Q      E E S S E E E S S E  Q    E E E E E E S S E Q
|--------||--------------------------|----------------------|
|--------||o-------------------------|----------------------|
|--------||--------------------------|----------------------|
|-----9--||----------------------12--|-------------------9--|
|-----7--||o---------------------10--|-------------------7--|
|-0-0----||--0-0-6-6-7-0-0-6-6-7-----|-0-0-6-7-0-0-6-6-7----|


                              Verse
  N.C.              Eb5        N.C.                            Bb5
                              4/4
                               PM----------------------------|
  E E E E E E S S E Q          E E E E E E E E   E E E E S S E Q
|-----------------------||-||------------------|-------------------|
|----------------------o||-||o-----------------|-------------------|
|-----------------------||-||------------------|-------------------|
|-------------------8---||-||------------------|---------------8---|
|-------------------6--o||-||o-----------------|---------------8---|
|-0-0-6-7-0-0-6-7-0-----||-||--7-0-6-0-7-0-9-0-|-6-0-7-0-7-6-0-6---|


  N.C.                          Bb5  N.C.                          Bb5
  PM--------------------------|      PM--------------------------|
  E E E E E E E E   E E E E E E Q    E E E E E E E E   E E E E E E Q
|-----------------|----------------|-----------------|----------------|
|-----------------|----------------|-----------------|----------------|
|-----------------|----------------|-----------------|----------------|
|-----------------|-------------8--|-----------------|-------------8--|
|-----------------|-------------8--|-----------------|-------------8--|
|-7-0-6-0-7-0-3-0-|-2-0-3-0-6-6-6--|-7-0-6-0-7-0-9-0-|-6-0-7-0-6-0-6--|


  1.                                   2.
  N.C.                          Bb5    N.C.
                                                        3/4
  PM--------------------------|        PM--------------------------|
  E E E E E E E E   E E E E E E Q      E E E E E E E E   E E E E E E
|-----------------|-----------------||-----------------|--------------|
|-----------------|----------------o||-----------------|--------------|
|-----------------|-----------------||-----------------|--------------|
|-----------------|-------------8---||-----------------|--------------|
|-----------------|-------------8--o||-----------------|--------------|
|-7-0-6-0-7-0-4-7-|-5-5-5-8-6-6-6---||-7-0-6-0-7-0-4-7-|-5-5-5-8-6-6--|


   Guitar Break
    Q=197
    N.C.  G5    N.C.G5          G5    N.C.
   4/4
    Gtr II
    PM--|     PM--|       PM--|     PM--|
    S S E  Q  S S E  Q    S S E  Q  S S E  Q
||----------------------|----------------------||
||o---------------------|---------------------o||
||----------------------|----------------------||
||----------------------|----------------------||
||o-------/5--------/5--|-------/5------------o||
||--0-0-0-/3--0-0-0-/3--|-0-0-0-/3--0-0-0-/6---||
|
|   Gtr I
|   q      q  q      q    q      q  q      q
||----------------------|----------------------||
||o---------------------|---------------------o||
||----------------------|----------------------||
||----------------------|----------------------||
||o-2------2--2------2--|-2------2--2------2--o||
||--0------0--0------0--|-0------0--0------0---||


      N.C.  G5  N.C.  G5    N.C.  G5  N.C.
      Gtrs I, II
      PM--|     PM--|       PM--|     PM--|
      S S E  Q  S S E  Q    S S E  Q  S S E  Q   4x
|-||----------------------|----------------------||
|-||o---------------------|---------------------o||
|-||----------------------|----------------------||
|-||----------------------|----------------------||
|-||o-------/5--------/5--|-------/5------------o||
|-||--0-0-0-/3--0-0-0-/3--|-0-0-0-/3--0-0-0-/6---||
|
|     W                     W                    4x
|-||----------------------|----------------------||
|-||o---------------------|---------------------o||
|-||----------------------|----------------------||
|-||----------------------|----------------------||
|-||o---------------------|---------------------o||
|-||----------------------|----------------------||


 Interlude
  N.C.
  PM--------|
  S S E S S E S S S S S S S S
|-----------------------------|
|-----------------------------|
|-----------------------------|
|-----------------------------|
|-------------8-8-8-8-7-7-7-7-|
|-0-0-0-5-5-5-----------------|

[ Tab from: http://www.guitartabs.cc/tabs/c/cannibal_corpse/fucked_with_a_knife_tab_ver_2.html ]
                                                    G5  N.C.
 5/4                                         4/4
                                              PM--|     PM--|
  S S S S S S S S S S S S S S S S S S S S     S S E  Q  S S E  Q
|-----------------------------------------||------------------------||
|-----------------------------------------||o----------------------o||
|-----------------------------------------||------------------------||
|-----------------------------------------||------------------------||
|-4-4-4-4-------------------------7-7-7-7-||o-------/5-------------o||
|---------6-6-6-6-0-0-0-0-6-6-6-6---------||--0-0-0-/3--0-0-0-/6----||


  N.C.
 4/4
  S S S S S S S S S S S S S S S S
|---------------------------------|
|---------------------------------|
|---------------------------------|
|---------------------------------|
|---------8-8-8-8-7-7-7-7-4-4-4-4-|
|-5-5-5-5-------------------------|


                                            G5  N.C.
                                      PM--|     PM--|
  S S S S S S S S S S S S S S S S     S S E  Q  S S E  Q
|---------------------------------||------------------------||
|---------------------------------||o----------------------o||
|---------------------------------||------------------------||
|---------------------------------||------------------------||
|-------------------------7-7-7-7-||o-------/5-------------o||
|-6-6-6-6-0-0-0-0-6-6-6-6---------||--0-0-0-/3--0-0-0-/6----||


  N.C.
  Gtr I
  S S S S S S S S S S S S S S S S
|---------------------------------|
|---------------------------------|
|---------------------------------|
|---------6-6-6-6-5-5-5-5-8-8-8-8-|
|-3-3-3-3-------------------------|
|---------------------------------|
|
| Gtr II
| S S S S S S S S S S S S S S S S
|---------------------------------|
|---------------------------------|
|---------------------------------|
|---------------------------------|
|---------8-8-8-8-7-7-7-7-4-4-4-4-|
|-5-5-5-5-------------------------|


                                                G5  N.C.
                                          PM--|     PM--|
  S S S S S S S S S S S S  S  S  S  S     S S E  Q  S S E  Q
|-------------------------------------||-----------------------||
|-------------------------------------||o---------------------o||
|-------------------------------------||-----------------------||
|-5-5-5-5---------5-5-5-5-11-11-11-11-||-----------------------||
|---------7-7-7-7---------------------||o-------/5------------o||
|-------------------------------------||--0-0-0-/3--0-0-0-/6---||
|
|                                         PM--|     PM--|
| S S S S S S S S S S S S  S  S  S  S     S S E  Q  S S E  Q
|-------------------------------------||-----------------------||
|-------------------------------------||o---------------------o||
|-------------------------------------||-----------------------||
|-------------------------------------||-----------------------||
|--------------------------7--7--7--7-||o-------/5------------o||
|-6-6-6-6-0-0-0-0-6-6-6-6-------------||--0-0-0-/3--0-0-0-/6---||


  N.C.
  Gtr I
  S S S S S S S S S S S S S S S S
|---------------------------------|
|---------------------------------|
|---------------------------------|
|---------6-6-6-6-5-5-5-5-8-8-8-8-|
|-3-3-3-3-------------------------|
|---------------------------------|
|
| Gtr II
| S S S S S S S S S S S S S S S S
|---------------------------------|
|---------------------------------|
|---------------------------------|
|---------------------------------|
|---------8-8-8-8-7-7-7-7-4-4-4-4-|
|-5-5-5-5-------------------------|


                                         Breakdown
                                                          E5
                                         3/4
                                      Gtrs I, II
                                          PM------------|
  S S S S S S S S S S S S  S  S  S  S     S S S S S S S S Q
|-------------------------------------||----------------------|
|-------------------------------------||o---------------------|
|-------------------------------------||----------------------|
|-5-5-5-5---------5-5-5-5-11-11-11-11-||------------------9---|
|---------7-7-7-7---------------------||o-4-4-4-4---------7---|
|-------------------------------------||----------6-6-6-6-----|
|
| S S S S S S S S S S S S  S  S  S  S     H               Q
|-------------------------------------||----------------------|
|-------------------------------------||o---------------------|
|-------------------------------------||----------------------|
|-------------------------------------||----------------------|
|--------------------------7--7--7--7-||o---------------------|
|-6-6-6-6-0-0-0-0-6-6-6-6-------------||----------------------|


  N.C.            G5          N.C.            E5
  PM------------|             PM------------|
  S S S S S S S S  Q   4x     S S S S S S S S Q
|----------------------||-||---------------------|
|---------------------o||-||o--------------------|
|----------------------||-||---------------------|
|-----------------12---||-||------------------9--|
|-4-4-4-4---------10--o||-||o-----------------7--|
|---------6-6-6-6------||-||--6-6-6-6-5-5-5-5----|


  N.C.            Eb5  N.C.            C#5
  PM------------|      PM------------|
  S S S S S S S S Q    S S S S S S S S Q
|--------------------|---------------------||
|--------------------|--------------------o||
|--------------------|---------------------||
|-----------------8--|-----------------6---||
|-----------------6--|-----------------4--o||
|-6-6-6-6-5-5-5-5----|-6-6-6-6-5-5-5-5-----||


    N.C.            E5   N.C.            G5
    PM------------|      PM--|   PM----|
    S S S S S S S S Q    S S S S S S S S  Q
||---------------------|---------------------|
||o--------------------|---------------------|
||---------------------|---------------------|
||------------------9--|-----------------12--|
||o-4-4-4-4---------7--|-4-4-4-4---------10--|
||----------6-6-6-6----|---------6-6-6-6-----|


  N.C.            E5   N.C.            Eb5
  PM------------|      PM------------|
  S S S S S S S S Q    S S S S S S S S Q
|--------------------|---------------------||
|--------------------|--------------------o||
|--------------------|---------------------||
|-----------------9--|-----------------8---||
|-----------------7--|-----------------6--o||
|-6-6-6-6-5-5-5-5----|-6-6-6-6-5-5-5-5-----||


    N.C.            E5   N.C.            G5
    Gtr I
    PM------------|      PM------------|
    S S S S S S S S q    S S S S S S S S  q
||---------------------|----------------------||-|
||o--------------------|---------------------o||-|
||---------------------|----------------------||-|
||------------------9--|-----------------12---||-|
||o-4-4-4-4---------7--|-4-4-4-4---------10--o||-|
||----------6-6-6-6----|---------6-6-6-6------||-|
|
|   Gtr II
|   PM------------|      PM------------|
|   S S S S S S S S q    S S S S S S S S  q
||---------------------|----------------------||-|
||o--------------------|---------------------o||-|
||---------------------|----------------------||-|
||------------------9--|-----------------12---||-|
||o-8-8-8-8-5-5-5-5-7--|-8-8-8-8-5-5-5-5-10--o||-|
||---------------------|----------------------||-|


   Guitar Break
    N.C.  G5  N.C.  G5    N.C.  G5  N.C.
   4/4
    Gtr II
    PM--|     PM--|       PM--|     PM--|
    S S E  Q  S S E  Q    S S E  Q  S S E  Q
||----------------------|----------------------||
||o---------------------|---------------------o||
||----------------------|----------------------||
||----------------------|----------------------||
||o-------/5--------/5--|-------/5------------o||
||--0-0-0-/3--0-0-0-/3--|-0-0-0-/3--0-0-0-/6---||
|
|   Gtr I
|   q      q  q      q    q      q  q      q
||----------------------|----------------------||
||o---------------------|---------------------o||
||----------------------|----------------------||
||----------------------|----------------------||
||o-2------2--2------2--|-2------2--2------2--o||
||--0------0--0------0--|-0------0--0------0---||


                                                 Outro
    N.C.  G5  N.C.                                E5 N.C.
                                                 3/4
    Gtrs I, II                                    Gtr I
    PM--|     PM--|       PM--|     PM--|            PM------------|
    S S E  Q  S S E  Q    S S E  Q  S S E  Q   4x q  S S S S S S S S
||----------------------|----------------------||---------------------|
||o---------------------|---------------------o||---------------------|
||----------------------|----------------------||---------------------|
||----------------------|----------------------||-9-------------------|
||o-------/5------------|---------------------o||-7--4-4-4-4----------|
||--0-0-0-/3--0-0-0-/6--|-0-0-0-/6--0-0-0-/6---||------------6-6-6-6--|
|
|                                                 Gtr II
|                                                    PM------------|
|   W                     W                    4x q  S S S S S S S S
||----------------------|----------------------||---------------------|
||o---------------------|---------------------o||---------------------|
||----------------------|----------------------||---------------------|
||----------------------|----------------------||-9-------------------|
||o---------------------|---------------------o||-7--8-8-8-8-5-5-5-5--|
||----------------------|----------------------||---------------------|


  G5  N.C.              E5 N.C.              G5
      PM------------|      PM------------|
   q  S S S S S S S S   q  S S S S S S S S    q  H      Wx5
|---------------------|--------------------|----------|--------*|
|---------------------|--------------------|----------|--------*|
|---------------------|--------------------|----------|--------*|
|-12------------------|-9------------------|-12-------|--------*|
|-10--4-4-4-4---------|-7--4-4-4-4---------|-10-------|--------*|
|-------------6-6-6-6-|------------6-6-6-6-|----------|--------*|
|
|     PM------------|      PM------------|
|  q  S S S S S S S S   q  S S S S S S S S    q  H      Wx5
|---------------------|--------------------|----------|--------*|
|---------------------|--------------------|----------|--------*|
|---------------------|--------------------|----------|--------*|
|-12------------------|-9------------------|-12-------|--------*|
|-10--8-8-8-8-5-5-5-5-|-7--8-8-8-8-5-5-5-5-|-10-------|--------*|
|---------------------|--------------------|----------|--------*|


Duration Legend
---------------
W - whole; H - half; Q - quarter; E - 8th; S - 16th; T - 32nd; X - 64th; a - acciaccatura
+ - note tied to previous; . - note dotted; .. - note double dotted
Uncapitalized letters represent notes that are staccato (1/2 duration)
Irregular groupings are notated above the duration line
Duration letters will always appear directly above the note/fret number it represents the
duration for.  Duration letters with no fret number below them represent rests.  Multi-
bar rests are notated in the form Wxn, where n is the number of bars to rest for.  Low
melody durations appear below the staff

Tablature Legend
----------------
 h   - hammer-on
 p   - pull-off
 b   - bend
 pb  - pre-bend
 r   - bend release (if no number after the r, then release immediately)
 /\  - slide into or out of (from/to "nowhere")
 s   - legato slide
 S   - shift slide
  - natural harmonic
[n]  - artificial harmonic
n(n) - tapped harmonic
 ~   - vibrato
 tr  - trill
 T   - tap
 TP  - trem. picking
 PM  - palm muting
\n/  - tremolo bar dip; n = amount to dip
 \n  - tremolo bar down
 n/  - tremolo bar up
/n\  - tremolo bar inverted dip
 =   - hold bend; also acts as connecting device for hammers/pulls
 <>  - volume swell (louder/softer)
 x   - on rhythm slash represents muted slash
 o   - on rhythm slash represents single note slash

Misc Legend
-----------
 |  - bar
||  - double bar
||o - repeat start
o|| - repeat end
*|  - double bar (ending)
 :  - bar (freetime)
 $  - Segno
 &  - Coda
Tempo markers -  = BPM(8/16=s8/s16), where s8 = swing 8ths, s16 = swing 16ths
Comments