Cannibal Corpse - Fucked With A Knife Chords & Tabs

 

Fucked With A Knife Chords & Tabs

Cannibal Corpse Chords & Tabs

Version: 1 Type: Tab 0 ratings
1 star 2 stars 3 stars 4 stars 5 stars
comments

Fucked With A Knife Tab

 This is Cannibal Corpse's song "Fucked with a knife" off "The Bleeding"
 Album. This without a doubt is one of the hardest songs i have ever tabbed.
 I am way to lazy to put down the beat, so figure it out yourself, listen to
 the cd. like all cannibal corpse songs, it is tuned to Eb, in otherwords, tune
 the guitar 1 halfstep down.this is a complete tab, however the
 riffs repeat a lot, but i was too lazy to put that to Corrections/hatemail/questions:
 i am also tabbing out a few songs from mayhems new album "a grand declaration of war"
 so keep checkin, oh yeah if you got requests mail them to me.
 later
 
 
 spawn1011@earthlink.net
 
 http://www.homestead.com/trloangelofdeath/TRLO.html
 
 
 Eb|----------------------------------||--------------------------------
 Bb|----------------------------------||*-------------------------------
 Gb|----------------------------------||--------------------------------
 Db|----------------------------------||------------------------------8-
 Ab|-------7-------10-------7-------6-||*----------------------------h6-
 Eb|-0-0-0---0-0-0----0-0-0---0-0-0---||--0-0-5-0-6-0-5-0-7-0-6-0-8-0---
 
 
 
 
 
 Eb-||--------------------------------||---------------------------------
 Bb-||*-------------------------------||*--------------------------------
 Gb-||--------------------------------||---------------------------------
 Db-||--------------------------------||-------------------------9-------
 Ab-||*-------3-------3-------3-------||*6-----------------------7-------
 Eb-||--0-0-0---0-0-0---0-0-0---0-0-0-||---0-0-0-5-0-6-0-5-0-0-3---0-0-0-
 
 
 
 
 
 Eb|--------------------------------------------------------------------
 Bb|--------------------------------------------------------------------
 Gb|--------------------------------------------------------------------
 Db|-----------------12-----------------------9-----------------------8-
 Ab|-----------------10-----------------------7-----------------------6-
 Eb|-5-0-6-0-5-0-0-3----0-0-0-5-0-6-0-5-0-0-3---0-0-0-5-0-6-0-5-0-0-3---
 
 
 
 
 
 Eb----------------------------------------------------------------------
 Bb----------------------------------------------------------------------
 Gb----------------------------------------------------------------------
 Db----------------------------------------------------------------------
 Ab--2-2-2-2-2-2-2-2-------5-------8-------5-------8---7-7-7-7-6-6-6-6---
 Eb--0-0-0-0-0-0-0-0-0-0-0-3-0-0-0/6-0-0-0-3-0-0-0/6-0-----------------6-
 
 
 
 
 
 Eb|-----------------------------------
 Bb|-----------------------------------
 Gb|-----------------------------------
 Db|-----------------------------------
 Ab|---------------5-5-5-6-6-8-8-8-8-7-
 Eb|-6-6-6-5-5-5-5---------------------
 
 -Leviathan
[ Tab from: http://www.guitartabs.cc/tabs/c/cannibal_corpse/fucked_with_a_knife_tab.html ]
Comments