Cannibal Corpse - Entrails Ripped From A Virgins Cunt Chords & Tabs

 

Entrails Ripped From A Virgins Cunt Chords & Tabs

Cannibal Corpse Chords & Tabs

Version: 1 Type: Tab 0 ratings
1 star 2 stars 3 stars 4 stars 5 stars
comments

Entrails Ripped From A Virgins Cunt Tab

"Entrails Ripped From a Virginís Cunt" by Cannibal Corpse
Off of "Tomb of the Mutilated"
Tabbed by Chris Rezendes

This was the hardest fucking tab Iíve ever done.  Iíve been working on it 
for several months,
so I hope you like it!  Corrections would be greatly appreciated, and 
comments are both
welcome and encouraged, both of which can be sent to dadmcbad@hotmail.com.

Tuning is Eb (half a step down from standard).

Rhythm Figure 1
---------------------------------------
---------------7-----------------------
-------2---4---7-----------------------
-000---0-0-2-0-5-----------------------

Verse
-------------------------------------------
-------2---4---7---6---5---3---4-----------
--000--0-0-2-0-5-0-4-0-3-0-1-0-2-----------

Rhythm Figure 2
--------------------------------------
------3-----3------7s8-6--------------
--000-1-000-1-000--5s6-4--------------

Riff 1
----------------------------------------
---0-5-0-4-0-6-0-5-0-7-0-6-0-8-7-8-7----

Riff 2
--------------------------------------------
---------2-2-2------------------------------
----------------7---8---7---6---2-----------
---4-4-4--------5-s-6-s-5---4---0-----------

Riff 3
----------------------------------------------------------------
---------2-2-2--------------------------------------------------
---------------4-4-4------------------------7---8---7---6---2---
---4-4-4---------------1-1-1-2-2-2-0-0-0----5-s-6-s-5---4---0---
[ Tab from: http://www.guitartabs.cc/tabs/c/cannibal_corpse/entrails_ripped_from_a_virgins_cunt_tab.html ]
Rhythm Figure 3
-------------------------------
-------3-5-3-------------------
---000-1-3-1-------------------

Riff 4
------------------------------------------------
------------------------------------------------
---------444---------3--------------------------
-000-111-----111-333-1--------------------------


Riff 5
----------------------------------------------
----------------------------------------------
-----------------------------1-1--------------
-0-0-3-3-0-0-1-1-0-0-3-3-0-0------------------

Rhythm Figure 4
----------------------------------------------
----------------------------------------------
--4-----4s524-2-----4-4-4-4-------------------
--2-0-0-2s3s2-0-0-0-------2-------------------

Riff 6
-----------------------------------------------
--4--------------------------------------------
----1-2----------------------------------------
--------222------------------------------------
-----------------------------------------------

Outro
----------------------------------------------
----------------------------------------------
------7s8-6------3s4-2------------------------
--0-0-5s6-4--0-0-1s2-0------------------------

Order of play

Rhythm Figure 1 x4
Verse x4
Rhythm Figure 1 x4
Rhythm Figure 2 x8
Riff 1 x4
Riff 2 x4
Riff 3 x3 and a half
Rhythm Figure 2 x8
Verse x4
Rhythm Figure 3 x8
Riff 4 x8
Riff 5 x8
Riff 2 x3 and a half
Rhythm Figure 4 x4
Rhythm Figure 1 x4
Verse x4
Rhythm Figure 1 x4
Rhythm Figure 2 x8
Riff 6 x17
Riff 1 x4
Riff 5 x8
Riff 6 x8
Outro x4
Comments