Cannibal Corpse - Disposal Of The Body Chords & Tabs

 

Disposal Of The Body Chords & Tabs

Cannibal Corpse Chords & Tabs

Version: 1 Type: Bass Tab 0 ratings
1 star 2 stars 3 stars 4 stars 5 stars
comments

Disposal Of The Body Bass Tab

Disposal Of The Body - Cannibal Corpse
tabbed by: ryan b

This probably isn't right...

Tune strings down to C#, G#, C#, F#, and PLAY WITH A PICK even though
Cannibal Corpse's bassist doesn't (no kidding!).

Riff A: (4 times)
G#----------------------
C#--7---5-4----8---6-5--

Riff B: (once)
G#--------------------------------------------------------
C#--4------4------4------4--4--4--4--4444-3333-2222-1111--

Riff C: (3 times)
G#--3--2-2-2-2222--5--2-2-2-2222--3--2-2-2-2222--5555-3333--
C#----------------------------------------------------------

Riff D: (once)
G#--3--2-2-2-2222--5--2-2-2-2222-----------------------
C#--------------------------------4444-3333-2222-1111--

Riff E: (once)
G#--22222222-------------------------5555--
C#-----------4444-3333-00000000-6666-------
[ Tab from: http://www.guitartabs.cc/tabs/c/cannibal_corpse/disposal_of_the_body_btab.html ]
Riff F: (once)
F#-----------------------------------------
C#--44444444-------------------------------
G#------------5555-4444-55555555-33333333--
C#-----------------------------------------

Riff E: (once)

Riff G: (once)
F#-----------------------------------------
C#-----------------------------------6666--
G#-----------5555-8888-55555555-8888-------
C#--66666666-------------------------------

Riff H: (once)
G#------------------------
C#--4--(rest for guitar)--

Riff C: (twice)
Riff E: (once)
Riff F: (once)
Riff E: (once)
Riff G: (once)

Riff I: (once)
G#----------------3-1-0--4-2-1--6-4-3--7-5-4--9-7-6--10-8-7--
C#--7-5-4--8-6-5---------------------------------------------

Riff J: (once)
G#----------------------------------------
C#--00000000-00000000-00000000-0000-4444--

Riff K: (once)
G#----------------------------------------
C#--00000000-00000000-00000000-4444-3333--

Riff L: (twice)
G#-----------------------------------------
C#--00000000-00000000-4444-3333-2222-1111--

Riff C: (3 times)
Riff D: (once) - Ending on C# (open C# string)


Comments