Cannibal Corpse - Disfigured Chords & Tabs

 

Disfigured Chords & Tabs

Cannibal Corpse Chords & Tabs

Version: 1 Type: Bass Tab 0 ratings
1 star 2 stars 3 stars 4 stars 5 stars
comments

Disfigured Bass Tab

F#||------------------||----------------------------|--------------------------|
C#||------------------||*---------------------------|--------------------------|
G#||------------------||*--------7--------10--------|--7--------4--------7-----|
D#||------------------||---0--0-----0--0------0--0--|-----0--0-----0--0-----0--|


                                                            
------------------------------||---------------------------|
-----------------------------*||*--------8--------5--------|
-----10--------11--------11--*||*--0--0-----0--0-----0--0--|
--0------0--0------0--0-------||---------------------------|


                                                          
---------------------------|----------------------------||
--8--------11--------8-----|-----5--------8--------14--*||
-----0--0------0--0-----0--|--0-----0--0-----0--0------*||
---------------------------|----------------------------||


                                                        
----------------------------|--------------------------|
*---------------------------|--------------------------|
*--------7--------10--------|--7--------4--------7-----|
---0--0-----0--0------0--0--|-----0--0-----0--0-----0--|


                                                           
------------------------------||--------------------------|
-----------------------------*||--------------------------|
-----10--------11--------11--*||--------4--------4--------|
--0------0--0------0--0-------||--0--0-----0--0-----0--0--|


                                                      
--------------------------|--------------------------|
--------------------------|--------------------------|
--4--------4--------4-----|-----4--------4--------4--|
-----0--0-----0--0-----0--|--0-----0--0-----0--0-----|

[ Tab from: http://www.guitartabs.cc/tabs/c/cannibal_corpse/disfigured_btab.html ]
                                                      
--------------------------|--------------------------|
--------------------------|--------------------------|
--------4--------4--------|--4--------4--------4-----|
--0--0-----0--0-----0--0--|-----0--0-----0--0-----0--|


                                                      
--------------------------|--------------------------|
--------------------------|--------------------------|
-----4--------4--------4--|--------4--------4--------|
--0-----0--0-----0--0-----|--0--0-----0--0-----0--0--|


                                                        
|---------------------------|--------------------------|
|*--------------------------|--------------------------|
|*--4--------7--------4-----|--------------4--------7--|
|------0--0-----0--0-----0--|--0--0--0--0-----0--0-----|


                            3x                           
----------------------------||--------------------------|
---------------------------*||--------------------------|
--------10--------7--------*||--4--------4--------4-----|
--0--0------0--0-----0--0---||-----0--0-----0--0-----0--|


                                                      
--------------------------|--------------------------|
--------------------------|--------------------------|
-----4--------4--------4--|--------4--------4--------|
--0-----0--0-----0--0-----|--0--0-----0--0-----0--0--|


                                                      
--------------------------|--------------------------|
--------------------------|--------------------------|
--4--------4--------4-----|-----4--------4--------4--|
-----0--0-----0--0-----0--|--0-----0--0-----0--0-----|


                                                       
--------------------------|--------------------------||
--------------------------|--------------------------||
--------4--------4--------|--4-----------------------||
--0--0-----0--0-----0--0--|-----0--0--0--0--0--0--0--||
Comments