Cannibal Corpse - Decency Defied Chords & Tabs

 

Decency Defied Chords & Tabs

Cannibal Corpse Chords & Tabs

Version: 1 Type: Tab 0 ratings
1 star 2 stars 3 stars 4 stars 5 stars
comments

Decency Defied Tab

Cannibal Corpse
Decency Defied
The Wretched Spawn

[tuning is B-flat, with standard intervals between strings]

Fig. 1
|--------------------------------------------------------------------|
|--------------------------------------------------------------------|
|--------------------------------------------------------------------|
|----------------------3-----4-------------------------3-----4-------|
|--2-2-2-2-2-2-2-2-------------5\4-2-2-2-2-5\4-2-2-------------5\4---|
|--0-0-0-0-0-0-0-0-0h1---0-2---3\2-0-0-0-0-3\2-0-0-0h1---0-2---3\2---|

[ Tab from: http://www.guitartabs.cc/tabs/c/cannibal_corpse/decency_defied_tab.html ]
Fig. 2
|------------[2x]------------------|--------------[2x]---------------|
|----------------------------------|---------------------------------|
|----------------------------------|---------------------------------|
|------3-----4---------------------|-----3-----4---------------------|
|--------------5\4-2-2-2-2-6-------|-------------5\4-6---------3-----|
|--0h1---0-2---3\2-0-0-0-0---3-0-0-|-0h1---0-2---3\2---3-0-1-2---220-|


Fig. 3
|------[3x]--------|-----[1x]--------||------[3x]--------|-----[1x]--------||
|------------------|-----------------||------------------|-----------------||
|------------------|-----------------||------------------|-----------------||
|------------------|-6---------------||------------------|-6---------------||
|--6---------3-----|-----------3-----||--6---------5\4---|-----------5\4---||
|----3-0-1-2---220-|---3-0-1-2---220-||----3-0-1-2-3\2-0-|---3-0-1-2-3\2-0-||


Fig. 4
|----------------------------------|
|----------------------------------|
|----------------------------------|
|----------------------3-----4-----|
|--6---------3-----------------5\4-|
|----3-0-1-2---220-0h1---0-2---3\2-|
Comments