Cannibal Corpse - Compelled To Lacerate Chords & Tabs

 

Compelled To Lacerate Chords & Tabs

Cannibal Corpse Chords & Tabs

Version: 1 Type: Tab 0 ratings
1 star 2 stars 3 stars 4 stars 5 stars
comments

Compelled To Lacerate Tab

   
Title: Compelled To Lacerate
Artist: Cannibal Corpse
Album: Gore Obsessed

Tabbed by: Andy Briones (House_Of_Shame@msn.com)
Helped by: Mike Kimball on Riff 3 & Riff 5 Fill
Tuning:  (Bb Eb Ab Db Gb Bb)

Please Figure out the timing for yourself. This was a really hard song to tab and I'm proud of it because this is my first Cannibal Corpse song that I tabbed. Enjoy! 

Tablature Notation
------------------
.  - palm mute                  /  - slide up to
\  - slide down to              ~  - vibrato             
h  - hammer on                  b  - bend 
p  - pull off                   Suffixes for bend    
ph - pinch harmonic             f - full bend    h - half bend
*  - see comment                r - release      t - tap bend
X  - percussion mute            ~ - vibrato bend
@  - slight palm mute           () - ghost note, sustained note
"  - Trem pick
----------------------------------------------------------------

Intro Riff: (Both Guitars)
Bb|----------------------------------------------------||
Gb|----------------------------------------------------||
Db|-----8"-7"-6"-5"-4"----------8"-7"-11"-8"-7"----7"--||
Ab|--6"----------------6"-5"-6"-----------------9"-----||
Eb|----------------------------------------------------||
Bb|----------------------------------------------------||


Riff 1A: (Both Guitars play 1A & 1B)
Bb|-----------------------------------------------------||
Gb|-----------------------------------------------------||
Db|-----------------------------------------------------||
Ab|--------------------------6--------------------------||
Eb|-----5--4--------8--7--------8--7--6--5--4-----------||
Bb|--3--------3/-6--------6--------------------6--0--1--||
     .        .           .     .  .  .  .  .  .  .  .


Riff 1B:
Bb|-----------------------------------------------------||
Gb|-----------------------------------------------------||
Db|-----------------------------------------------------||
Ab|--------------------------6--------------------------||
Eb|-----5--4--------8--7--------8--7--6--5--4-----------||
Bb|--3--------3/-6--------6--------------------6--5--4--||
     .        .           .     .  .  .  .  .  .  .  .


Riff 2: (Both Gtrs.)
Bb|------------------------------------------------------------------||
Gb|------------------------------------------------------------------||
Db|--------------6"-------------------------------------3"-----------||
Ab|-----8"-7"-------8"-7"----------------------5"-4"-------5"-4"-----||
Eb|--6"-------6"----------6"----3"----3"-2"-3"-------3"----------3"--||
Bb|--------------------------------5"--------------------------------||


Riff 2: Ending (Left Gtr.)
Bb|----------------------------||
Gb|----------------------------||
Db|----------------------------||
Ab|--2"----5"---8"-------------||
Eb|-------------------4"---7"--||
Bb|----------------------------||
  |                            ||
Riff 2: Ending (Right Gtr.)    ||
Bb|----------------------------||
Gb|----------------------------||
Db|----------------------------||
Ab|--2"------------------------||
Eb|--------3/7"-6"-------------||
Bb|-------------------6"---5"--||

[ Tab from: http://www.guitartabs.cc/tabs/c/cannibal_corpse/compelled_to_lacerate_tab.html ]
Riff 3: (Both Gtrs.)
Bb|-----------------------------------||
Gb|-----------------------------------||
Db|-----------------------------------||
Ab|----------------------2-3-5--------||
Eb|----------2-1---5-4---------4-3-2--||
Bb|--3-2-1-0-----0-----0--------------||
     . . . . . . .   . .       . . .


Riff 4: (Left Gtr.)
Bb|---------------------------------------------------||
Gb|---------------------------------------------------||
Db|---------------------------------------------------||
Ab|---------------------------------------------------||
Eb|-----6"-5"-4"-3"-2"----------6"-5"-9"-6"-5"----5"--||
Bb|--3"----------------4"-3"-4"----------------7"-----||
  |                                                   ||
Riff 4: (Right Gtr.)                                  ||
Bb|---------------------------------------------------||
Gb|---------------------------------------------------||
Db|--------7"----------------------7"---8"-10"--------||
Ab|--6"----------------------6"------7"--------9"-----||
Eb|-----9"----6"----5"----------9"----------------8"--||
Bb|--------------8"----7"-5"--------------------------||


Riff 5: (Right Gtr.)
Bb|---------------------------------------||
Gb|---------------------------------------||
Db|---------------------------------------||
Ab|---------------------------------------||
Eb|--6\5----------------------------------||
Bb|--4\3-0-0-0-0-0-0-0-0-0-0-0-0-0-0-0-0--||
  |      . . . . . . . . . . . . . . . .  ||
  |                                       ||
Riff 5 (Left Gtr):                        ||
Bb|---------------------------------------||
Gb|--------------------------/=3=\-/=3=\--||
Db|--------------------------6-3-0-6-3-0--||
Ab|-------------2"-5"---------------------||
Eb|--6\5-----4"---------------------------||
Bb|--4\3-0-0------------------------------||
         . .

Riff 5 Fill:
Bb|-------------------||
Gb|-------------------||
Db|-------------------||
Ab|-------------------||
Eb|--6\5---6\5---6\5--||
Bb|--4\3-0-4\3-0-4\3--||


Riff 6:
Bb|-------------------------------------------------------------------||
Gb|-------------------------------------------------------------------||
Db|-------------------------------------------------------------------||
Ab|-------------------------------------------------------------------||
Eb|----------1-2-3-4---4-3-2-1---------------------4-3-2-1---------4--||
Bb|--3-2-1-0---------0---------0-1-2-3-2-1-0-1-2-3---------0-1-2-3----||
     . . . .         .         . . . . . . . . . .         . . . .


Riff 7:
Bb|-------------------------------------------------------------------||
Gb|-------------------------------------------------------------------||
Db|-------------------------------------------------------------------||
Ab|--------------3---------------4\3-------------3--------------------||
Eb|--3-----5-----1-----5-----6\5-2\1-3-----5-----1-----5-----2-1---1--||
Bb|--1-000-3-000---000-3-000-4\3-----1-000-3-000---000-3-000-----3----||
       ...   ...   ...   ...           ...   ...   ...   ... . . . .


End Fill:
Bb|---------------||
Gb|---------------||
Db|---------------||
Ab|---------------||
Eb|--6\5-6\5-6\5--||
Bb|--4\3-4\3-4\3--||

Any Questions, Concerns, or Comments, please Email Me at House_Of_Shame@msn.com


Note: Please post on this Board if this is a good tab! Thanks!
Comments