Cannibal Corpse - Addicted To Vaginal Skin Chords & Tabs

 

Addicted To Vaginal Skin Chords & Tabs

Cannibal Corpse Chords & Tabs

Version: 1 Type: Bass Tab 0 ratings
1 star 2 stars 3 stars 4 stars 5 stars
comments

Addicted To Vaginal Skin Bass Tab

   
.  - palm mute           /  - slide up to
  - slide down to       ~  - vibrato
h  - hammer on           b  - Bend
p  - pull off            Suffixes for bend
t  - tap                 f  - full bend    h - half bend
ph - pinched harmonic    q  - quarter bend t - tap bend
*  - see comment         ^  - Hold bend    r release bend
x  - Stuccatto           ~  - vibrato bend
,  - slight palm mute    () - ghost note, sustained note
"  - tremolo note        <> - Trill

Tunning Eb Ab Db Gb 

intro 
|-----------------------------------------------------------------------|
|-2---2------------2---3------------------------------------------------|
|--------23------------1--23--------------------------------------------|
|---0----------------0--------------------------------------------------|

[ Tab from: http://www.guitartabs.cc/tabs/c/cannibal_corpse/addicted_to_vaginal_skin_btab.html ]
|-----------------------------------------------------------------------|
|-----------------------------------------------------------------------|
|-----------------------------------------------------------------------|
|--6x6x6x6x33333333-5x5x5x5x22222222-4x4x4x4x11111111-------------------|


|-----------------------------------------------------------------------|
|-----------------------------------------------------------------------|
|--------------------------------55555555-------------------------------|
|--666666666633333333336666666666---------------------------------------|

solo
|------------------------------3h5---------------------------3h5--------|
|--22222222------------0h1-2h4-----------------2------0h1-2h5-----------|
|----------11111111-0h1--------------------------1-0h1------------------|
|-----------------------------------------------------------------------|


|----------------------------------------3h5----------------------------|
|----22222222--------222222222----0h1-2h5-------------------------------|
|------------11111111----------0h1--------------------------------------|
|-----------------------------------------------------------------------|
Comments