Cannibal Corpse - A Skull Full Of Maggots Chords & Tabs

 

A Skull Full Of Maggots Chords & Tabs

Cannibal Corpse Chords & Tabs

Version: 2 Type: Tab 0 ratings
1 star 2 stars 3 stars 4 stars 5 stars
comments

A Skull Full Of Maggots Tab

Name: A Skull Full Of Maggots
Album: Eaten Back To Life	
By :  Cannibal Corpse
Tabbed By: Randy(Kreator142)
E-Mail:Metaldeth161@aol.com

\  /= USE BAR BEND UP AND DOWN
 \/
^=BEND STRING UP
^=DOUBLE BEND


 Intro Play 8x Riff 1
|--------------------------------|
|--------------------------------|
|--------------------------------|
|--------------------------------|
|-7---6---5---4---6---5---4---3--|
|-5-0-4-0-3-0-2-0-4-0-3-0-2-0-1-0|
 
 Riff 2 play once
|-----------------------------------|
|-----------------------------------|
|-----------------------------------|
|--------------------------------7-8|
|----------------------------6-7----|
|-555555556666666655555555-6--------|
 
|-----------------------------------------------^--|
|----------------------------o\--/W Bar Or--9^^^^--|
|------------------------------\/------------------|
|--------------------------------------------------|
|--------------------------------------------------|
|-555555556666666655555555-------------------------|


Then Back To Riff 1( play 4x ) Then Play This

 Riff 3 Repeat 4x
|-----------------------------------------------------|
|-----------------------------------------------------|
|-----------------------------------------------------|
|-9-----9-----9------8-8-8--9-----9-----9-------------|
|-7-----7-----7------8-8-8--7-----7-----7-----7-6-5-4-|
|---0-0---0-0---0-0-----------0-0---0-0---0-0-5-4-3-2-|
[ Tab from: http://www.guitartabs.cc/tabs/c/cannibal_corpse/a_skull_full_of_maggots_tab_ver_2.html ]
 Riff 4 Repeat 
|-----------------------------------------------------------|
|-----------------------------------------------------------|
|-----------------------------------------------------------|
|-7-----7-----7---------------7-----7-----7-----------------|
|-5-----5-----5------8-7------5-----5-----5-----8-5--8-8-8-8|
|---0-0---0-0---0-0--6-5--0-0---0-0---0-0---0-0-6-3--6-6-6-6|

 Then Play Riff 3 (2x) Then U Play Riff 1 (4x) Then Play

 Riff 5
|---------------------------------------------------------------|
|---------------------------------------------------------------|
|---------------------------------------------------------------|
|---------------------------------------------------------------|
|-7-6-5-4...........6-5-4-3...........7-6-5-4...........6-5-4-3-|
|-5-4-3-2...........4-3-2-1...........5-4-3-2...........4-3-2-1-|

 Riff 6 Repeat Twice
|------------------------------------------|
|------------------------------------------|
|------------------------------------------|
|------------------------------------------|
|-------------7-6-5-4--------------6-5-4-3-|
|000000000000-5-4-3-2-000000000000-4-3-2-1-|
 
|------------------------------------------|
|------------------------------------------|
|------------------------------------------|
|------------------------------------------|
|--------------7-6-5-4--------------6-5-4-3|
|-000000000000-5-4-3-2-000000000000-4-3-2-1|


Then Play Riff 1 (2x) Then Play 

 Riff 7 Play 4x
|----------------------------------|
|----------------------------------|
|-9-----------9-----------9--------|
|-7-----------7-----------7--8-8-8-|
|-7-----------7-----------7--8-8-8-|
|---7-7-8-8-7---7-7-8-8-7----------|
Comments