Candyskins - Feed It Chords & Tabs

 

Feed It Chords & Tabs

Candyskins Chords & Tabs

Version: 1 Type: Bass Tab 0 ratings
1 star 2 stars 3 stars 4 stars 5 stars
comments

Feed It Bass Tab

   
  BTAB: Feed It

Artist: The Candyskins

Author: Rattman (jratt0@hotmail.com)



**Padrino's Bass Tab Exclusive!**



Intro/Outro:

G---------------------------------------------------------------------

D-0-0-0-0-0-0-0-0-0-0-0-0-0-0-0-0-0-0-0-0-0-0-0-0-0-0-0-0-0-0-0-0-0-0-

A---------------------------------------------------------------------

E---------------------------------------------------------------------



[drums enter...]



Verse:

G------------------

D------------------

A---5---5---5---5--

E-5---5---5---5----



Chorus:

(Not exact picking ammounts)

G----------------------------------------------------------------------------
[ Tab from: http://www.guitartabs.cc/tabs/c/candyskins/feed_it_btab.html ]
D----------------------------------------------------------------------------

A-5-5-5-5-5-------------------------------------------5-5-5-5-5-5------------

E-----------5-5-5-5-5-7-7-7-7-7-5-5-5-5-5-3-3-3-3-3-3------------5-5-5-5-5-5-





Guitar Solo:

G-----------------------------------------------------------------------------

D-----------------------------------------------------------------------------

A-3-3--3---3-3-3----3---3---------------------------7-7-7-7-7-7--8-8-8-8-8-5~-

E--------3--------3---3---3-3-3-3-3-3-2-2-2-2-2-2-2---------------------------



Right before end (where the orchestra part comes in):

G--------------------

D--------------------

A--------------------

E-0h3-3-3--0h3-3-3-3-

 

Taken from Padrino's Bass Tab Archive: http://members.xoom.com/jszalma/


Comments