Candlemass - Demons Gate Chords & Tabs

 

Demons Gate Chords & Tabs

Candlemass Chords & Tabs

Version: 1 Type: Tab 0 ratings
1 star 2 stars 3 stars 4 stars 5 stars
comments

Demons Gate Tab

Intro

E-----------------------------------------------------------------------|
B-----------------------------------------------------------------------|
G-----------------------------------------------------------------------|
D--3---3--3-4---4--4-7---7--7-10---10--10-9---9--9-8---8--8-7---7--7-6--|
A--1---1--1-2---2--2-5---5--5--8---8---8--7---7--7-6---6--6-5---5--5-4--|
E-----------------------------------------------------------------------|

Riff1
[ Tab from: http://www.guitartabs.cc/tabs/c/candlemass/demons_gate_tab.html ]
E--------------------------------------------------|
B--------------------------------------------------|
G----------------------------------2-1h2p1---------|
D------------------------2-2-2-3-2---------3-------|
A--3---2-2-2----3-2--------------------------------|
E-1--0-------2-1----3-0----------------------------|
 play this part 4x

Riff2

E-----------------------------------------------------|
B-----------------------------------------------------|
G-----------------------------------------------------|
D--9---9-10-9---9-10-7--------------------------------|
A--7---7-8--7---7-8--5---8-7-5-7-5-7-8--8-7-5-7-5-7-8-|
E----------------------0---------------0--------------|
 play this part 2x

then repeat Riff 1 twice
            Riff 2 twice
            Intro  Once
            Riff 1 twice


If you want the rest mail me on sp3rmin4t0r@hotmail.com
Comments