Candlebox - You Chords & Tabs

 

You Chords & Tabs

Candlebox Chords & Tabs

Version: 1 Type: Bass Tab 0 ratings
1 star 2 stars 3 stars 4 stars 5 stars
comments

You Bass Tab

Date: Thu, 23 Jan 1997 15:44:48 -0500 (EST)
From: Jesse Anth Lomonaco 

YOU - Candlebox

Fig. 1

G---------------------------
D---------------------------
A---5--5-5-4-5-4------------   Repeat 11x
E----------------7-7-7-7-7-7


Chorus

G------------------------------
D------------------------------
A------------------------------  Repeat 3x
E--3--3-3--5--5-5--7-7-7-7-7-7-


Repeat Fig.1 10x
[ Tab from: http://www.guitartabs.cc/tabs/c/candlebox/you_btab.html ]
Chorus 8x  On the last time hold out the 7 on the E string


Fig 2.

G---------------------
D---------------------
A-------5-------------  Repeat 11x
E-7-7-7---5-5-5h7-7-7-


Fig 3

G-------------------------------
D-------------------------------
A-----------------7-------------  Repeat once
E-7-7-5-5-3-3-5----5-5-5h7-7-7-7

Repeat Fig 2 under guitar solo 8x

Chorus 4x

Fig 3 2x

Chorus 8x

An easy song as with most Candlebox but still a good one.


Comments