Candlebox - Step Back Chords & Tabs

 

Step Back Chords & Tabs

Candlebox Chords & Tabs

Version: 1 Type: Tab 0 ratings
1 star 2 stars 3 stars 4 stars 5 stars
comments

Step Back Tab

   
Artist Name : Candlebox
Song Name   : Step Back
Added By Mikhailo


Intro: 

e----------------------------------------------
B----------------------------------------------
G-9-7-----7-------7-------7-----7-9-9b-9b-9br7-
D-9-7-5/9---9-5/9---9-5/9---9-9----------------
A-7-5------------------------------------------
E----------------------------------------------

e-------------
B-------------
G---7-7h9-9-7-
D-9----------- 
A-------------
E-------------

Verse: E5 B5 A5

Pre-chorus:
[ Tab from: http://www.guitartabs.cc/tabs/c/candlebox/step_back_tab.html ]
e---------------------------------------------
B---------------------------------------------
G-5-5-5-5-2-2-2-2--------5-5-5-5-2-2-2-2------
D-5-5-5-5-2-2-2-2-5-2----5-5-5-5-2-2-2-2--5-2-
A-3-3-3-3-0-0-0-0-5-2----3-3-3-3-0-0-0-0--5-2-
E-----------------3-0---------------------3-0-

Chorus: Repeat Intro

Bridge:

e------------------------------------
B------------------------------------
G-5-5-5-5--5-5-5-5--5-5-5-5--5-5-5---
D-5-5-5-5--5-5-5-5--5-5-5-5--5-5-5---
A-3-3-3-3--3-3-3-3--3-3-3-3--3-3-3---
E----------------------------------0-

e---------------------
B-7-------7---7-------
G---7---7---7---7---7-
D-----7-----------7---
A---------------------
E---------------------
Comments