Candlebox - Far Behind Chords & Tabs

 

Far Behind Chords & Tabs

Candlebox Chords & Tabs

Version: 1 Type: Bass Tab 0 ratings
1 star 2 stars 3 stars 4 stars 5 stars
comments

Far Behind Bass Tab

   
This song is already listed, but this is a more accurate transcription.
-- 
               ________________________________________________	
              /                Dennis L Taylor II              \
              |            mailto:denhou74@swbell.net           |    
              |   http://home.swbell.net/denhou74/index.html    |
              |_________________________________________________|Candlebox
Far Behind from the self-titled album
transcribed by:Dennis L Taylor II
        mailto:denhou74@swbell.net
      homepage:http://home.swbell.net/denhou74
_____________________________________________________________________________

The bass comes in on the C, after about 16 bars or so.
Verse
G           	     E
G|---------------------------------------|
D|---------------------------------------|
A|---------------------------------------|
E|-3------0-3-3-----3-0-------0-0--------|

D		     C
G|---------------------------------------|
D|---------------------------------------|
A|-5------5-------0-2-3--------3-3-2-----|
E|---------------------------------------|
[ Tab from: http://www.guitartabs.cc/tabs/c/candlebox/far_behind_btab.html ]
Chorus
G                    E
G|---------------------------------------|
D|---------------------------------------|
A|---------------------------------------|
E|-3--------3-3-3----3-0-------0-0-------|

D                    C
G|---------------------------------------|
D|---------------------------------------|
A|-5------5-------0-2-3--------3-3-2-----|
E|---------------------------------------|

The first part of the guitar solo uses the same lines as
the chorus. The second part goes like this...

G
G|---------------------------------------|
D|---------------------------------------|
A|-------------------------------------5-|
E|-3--------3-3-3----3-3-------5-/-7-----|

E
G|---------------------------------------|
D|---------------------------------------|
A|-7---------7-7-7----7-7------7-7-7-----|
E|---------------------------------------|

The "bridge" part is just an Em7 on the guitar and the bass
holds the E until the riff, which goes like this...

E
G|---------------------------------------|
D|---------------------------------------|
A|-7--5----------------------------------|
E|-------7--6--5--0----------------------|


That's it.

Comments