Candlebox - Blinders Chords & Tabs

 

Blinders Chords & Tabs

Candlebox Chords & Tabs

Version: 1 Type: Tab 0 ratings
1 star 2 stars 3 stars 4 stars 5 stars
comments

Blinders Tab

   
Artist Name : Candlebox
Song Name   : Blinders
Added By Mikhailo

[ Tab from: http://www.guitartabs.cc/tabs/c/candlebox/blinders_tab.html ]
Intro/Verse:
e-2-2-0-0-3-2-2-0---2-2-0-0-3-2--------------------------------------
B-3-3-3-3-3-3-3-3---3-3-3-3-3-3----------------------------------0-2-
G-2-2-2-2-2-2-2-2---2-2-2-2-2-2-----0-----0-------0-----0------2---2-
D-0-0-0-0-0-0-0-0---0-0-0-0-0-0-0h2-----2---2---2---2-------2------2-
A-----------------3-------------------3-------3-------3---0--------0-
E--------------------------------------------------------------------
Pre-Chorus: C G C G
Chorus:
e-----------------------------------------
B-----------------------------------------
G-7-7-7-7-7-7-7-7-7-7-5-5-5-5-------------
D-7-7-7-0-0-7-7-7-7-7-5-5-5-5-5-5-5-5-5-5-
A-5-5-5-0-0-5-5-5-5-5-3-3-3-3-5-5-5-5-5-5-
E-----------------------------3-3-3-3-3-3-
Comments