Cancer - Hung Drawn And Quartered Chords & Tabs

 

Hung Drawn And Quartered Chords & Tabs

Cancer Chords & Tabs

Version: 1 Type: Tab 0 ratings
1 star 2 stars 3 stars 4 stars 5 stars
comments

Hung Drawn And Quartered Tab

CANCER - HUNG, DRAWN AND QUARTERED
----------------------------------

 ----------------
|Dropped D Tuning|
 ---------------- 
====================================================================================
  INTRO
||-----------------|---------------||
||-----------------|---------------||
||-----------------|---------------||
||-----------------|---------------||
||-----------------|-6-6-6-6-6-6-6-||
||-1-1-1-1-1-1-1-1-|---------------||
   . . . . . . . .

  FILL 
||----------||
||----------||
||----------||
||-----3----||
||-4-3-1-2--||
||-4-3---2--||


  RIFF 2
||-----------------------------------------------------------------||
||-----------------------------------------------------------------||
||-----------------------------------------------------------------||
||-----------------------------------------------------------------||
||---------------------------------1-1-1-1-1-1-1-1-----------------||
||-4-4-4-4-4-4-4-4-3-3-3-3-3-3-3-3-----------------2-2-2-2-2-2-2-2-||
 

[ Tab from: http://www.guitartabs.cc/tabs/c/cancer/hung_drawn_and_quartered_tab.html ]
  RIFF 3
||---------------------------------------------||
||---------------------------------------------||
||---------------------------------------------||
||---------------------------------------------||
||-----------------6-6-7-----------------1-1-2-||
||-1-1-1-1-1-1-1-1-6-6-7-1-1-1-1-1-1-1-1-1-1-2-||
|| . . . . . . . . .     . . . . . . . . .     ||
||                                             ||
||                                             ||
||RIFF 3a                                      ||
||---------------------------------------------||
||---------------------------------------------||
||---------------------------------------------||
||---------------------------------------------||
||-----------------6-6-7-----------------3-4-2-||
||-1-1-1-1-1-1-1-1-6-6-7-1-1-1-1-1-1-1-1-3-4-2-||
   . . . . . . . . .     . . . . . . . . .   


  RIFF 4
||-----------------------------------------||
||-----------------------------------------||
||-----------------------------------------||
||-----------------------------------------||
||-1-1-1-----1-4-6-------------------------||
||-1-1-1-3p1-1-4-6-1-1-1-1-1-1-1-1---------||
||   . .     .     . . . . . . . .         ||   
||                                         ||
||RIFF 4a                                  ||
||-----------------------------------------||
||-----------------------------------------||
||-----------------------------------------||
||-----------------------------------------||
||-1-1-1-----1-4-7-------------------------||
||-1-1-1-3p1-1-4-7-1-1-1-1-4-4-4-4-2-2-2-2-||
     . .     .     . . . . . . . . . . . .    
 

  CHORUS
||-------------------------|-------------------------||
||-------------------------|-------------------------||
||-------------------------|-------------------------||
||-------------------------|-------------------------||
||-1-2-3-2-----1-2-4-5-2-3-|-1-2-3-2-----1-2-2-3-4-5-||
||-1-2-----3-2-1-2-4-5-2-3-|-1-2-----3-2-1-2-2-3-4-5-||
                   . . . .                   . . . .
====================================================================================

  ORDER:

1)INTRO Ax4	6)RIFF  3x1	11)RIFF  4x8	16)CHORUS  x2

2)INTRO Bx4	7)RIFF  2x1	12)CHORUS x2

3)FILL   x1	8)INTRO Ax1	13)RIFF  3+3ax4

4)INTRO Ax1	9)RIFF  2x1	14)RIFF  4x8

5)RIFF  2x1    10)RIFF  3+3ax4	15)RIFF  3+3ax4
====================================================================================
Comments