Camron - Hey Ma Chords & Tabs

 

Hey Ma Chords & Tabs

Camron Chords & Tabs

Version: 2 Type: Tab 0 ratings
1 star 2 stars 3 stars 4 stars 5 stars
comments

Hey Ma Tab

   
Cam'ron - Hey Ma


e|-------------------------------------|
B|--1--4-----4--2----2-2---------------|
G|--------5---------------4h2--2--4/2--|
D|-------------------------------------|
A|-------------------------------------|
E|-------------------------------------|
 
Intro

  C
e|-----------------------------------|
B|--1-1-1-1-1-1-1-1-1-1-1-1-1-1-1-1--|
G|--0-0-0-0-0-0-0-0-0-0-0-0-0-0-0-0--|
D|--2-2-2-2-2-2-2-2-2-2-2-2-2-2-2-2--|
A|------------------0-0-0-0-0-0-0-0--|
E|-----------------------------------|

[ Tab from: http://www.guitartabs.cc/tabs/c/camron/hey_ma_tab_ver_2.html ]
 
e|-----x--3--x--1--x--1---1----3/2--|
B|--1--x--4--x--2--x--2---2----4/3--|
G|--0--x--5--x--3--x--3---3----5/4--|
D|--2--x--5--x--3--x--3---3----5/4--|
A|-----x--3--x--1--x--1---1----3/2--|
E|-----x--0--x--0--x--0---0----0/0--|



   C      Cm    A#/Bbm    Bm
e|-0-|  e|-3-|  e|-1-|  e|-2-|
B|-1-|  B|-4-|  B|-2-|  B|-3-|
G|-0-|  G|-5-|  G|-3-|  G|-4-|
D|-2-|  D|-5-|  D|-3-|  D|-4-|
A|-3-|  A|-3-|  A|-1-|  A|-2-|
e|-x-|  e|-0-|  e|-0-|  e|-0-|


AOL sn: Wierddude2005
Comments