Calling - Wherever You Will Go Chords & Tabs

 

Wherever You Will Go Chords & Tabs

Calling Chords & Tabs

Version: 5 Type: Tab 0 ratings
1 star 2 stars 3 stars 4 stars 5 stars
comments

Wherever You Will Go Tab

   
Song: Wherever You Will Go
Artist: The Calling
Transcribed by: Greg Stone
Modified by: Mark Meier
email: gs200@hotmail.com, mark_meier_jr@hotmail.com
Notes: just added a few extra notes on hte intro, nice tab Greg!

Standard tuning with capo on 2nd Fret.
Chords and tablature relative to capo.
This is a great solo piece on acoustic guitar.

Intro and Verses
[ Tab from: http://www.guitartabs.cc/tabs/c/calling/wherever_you_will_go_tab_ver_5.html ]
   (C)		  (Gsus4/B)	  (Am7)		  (F)
e|-------------------------------------------------------------------|
B|-1---------1---------------1---------------1---------1-----1---1---|
G|-----0---0---0-------0---0---0-------0---0---0---------3-----------|
D|---2-----------0---0-----------0---2-----------0-------------------|
A|-3-----3---------2-----2---------0-----0-----------3---------------|
E|-------------------------------------------------1-------1---3-----|
   let ring....

Strum chords near tail end of verses, "If a great wave shall fall..."



Chorus (Strumming)

C	     G		    Am		  F
  If I could,  then I would,   I'd go wherever you will go...



Bridge (Strummed)

Am	F	         G     Em	
   	Runaway with my heart...



Ending chords (variations on F)

e|--1---0---3-----|
B|--1---1---1-----|
G|--2---2---2-----|
D|--3---3---3-----|
A|--0---0---0-----|
E|----------------|
Comments