Calling - Wherever You Will Go Chords & Tabs

 

Wherever You Will Go Chords & Tabs

Calling Chords & Tabs

Version: 3 Type: Tab 0 ratings
1 star 2 stars 3 stars 4 stars 5 stars
comments

Wherever You Will Go Tab

The Calling - Wherever You Will Go.
 Tabbed by Jared Dawson, jdawson_20@hotmail.com.
  
Intro/ Verses:

e-----------------------------------------------------
B------3----------3-----------3-------3-----3---------
G---2-2-2------2-2-2-------4-4-4------4-----4---------
D--4-4---4----4-4---4-----4-4---4---------------------
A-5----------4-----------2-----------5-----5----5-----
E-----------------------------------3-----3----3------

(Repeat as needed)

Chorus: (Strumming Pattern is Easy - I didn't write it out)
[ Tab from: http://www.guitartabs.cc/tabs/c/calling/wherever_you_will_go_tab_ver_3.html ]
e-----------------------------------------------------
B-----------------------------------------------------
G-7-------4-------------------------------------------
D-7---4---4---5---------------------------------------
A-5---4---2---5---------------------------------------
E-----2-------3---------------------------------------

Bridge: (Runaway with my heart...)

e----------------------------------------------------
B----------------------------------------------------
G-4-----------------2--------------------------------
D-4-----5-----4-----2--------------------------------
A-2-----5-----4-----0--------------------------------
E-------3-----2--------------------------------------

Again, the strumming pattern is easy, so I didn't write it out.

That's all.  This is a great song, so enjoy playing it. E-mail me 
with questions or comments (jdawson_20@hotmail.com) Peace!

Jared Dawson 
:: Ultimate Guitar Archive :: 
http://www.ultimate-guitar.com 



Comments