Calling - Wherever You Will Go Chords & Tabs

 

Wherever You Will Go Chords & Tabs

Calling Chords & Tabs

Version: 4 Type: Chords 0 ratings
1 star 2 stars 3 stars 4 stars 5 stars
comments

Wherever You Will Go Chords

   
Band: The Calling
Song: Wherever you will go
Tabber: ssj
Sup? my niggas?? Stone, rock, bato!!!
You see the thing is... it's my first time to submit a tab but I asure you
that this tab is absolutely 100% correct... So please rate my piece...
And also if you have like a friendster account add me ssj_mastery@yahoo.com
Kung may Ragnarok account ka naman sa iris server pm nio na lang ako ssj3 okei


Intro:
e|-----------0-----||-----------0-----||-----------0-----||
B|-----0-------0---||-----4-------4---||-----5-------5---||
G|---1---1-------1-||---4---4-------4-||---6---6-------5-||
D|-1-------1-------||-4-------4-------||-6-------6-------||
A|-----------------||-----------------||-----------------||
E|-----------------||-----------------||-----------------||

e|-----------0---0-||    
B|-----2-----------||  
G|---2---2---------||   
D|-2-------2-------||  
A|-------------2---||  
E|-----------------||  

Verse 1: Remember: this verse is more on plucking, so never strum this chords
    
     so lately          been wondering     who will be 
e|-----------0-----||-----------0-----||-----------0-----||
B|-----0-------0---||-----4-------4---||-----5-------5---||
G|---1---1-------1-||---4---4-------4-||---6---6-------5-||
D|-1-------1-------||-4-------4-------||-6-------6-------||
A|-----------------||-----------------||-----------------||
E|-----------------||-----------------||-----------------||

there to take my place
e|-----------0---0-||    
B|-----2-----------||  
G|---2---2---------||   
D|-2-------2-------||  
A|-------------2---||  
E|-----------------||
  
  When i'm gone      you'll need love   to light the 
e|-----------0-----||-----------0-----||-----------0-----||
B|-----0-------0---||-----4-------4---||-----5-------5---||
G|---1---1-------1-||---4---4-------4-||---6---6-------5-||
D|-1-------1-------||-4-------4-------||-6-------6-------||
A|-----------------||-----------------||-----------------||
E|-----------------||-----------------||-----------------||

 shadows on your face
e|-----------0---0-||    
B|-----0-----------||  
G|---2---2---------||   
D|-2-------2-------||  
A|-------------2---||  
E|-----------------||
        if a          great wave shall     fall and 
e|-----------0-----||-----------0-----||-----------0-----||
B|-----0-------0---||-----4-------4---||-----5-------5---||
G|---1---1-------1-||---4---4-------4-||---6---6-------5-||
D|-1-------1-------||-4-------4-------||-6-------6-------||
A|-----------------||-----------------||-----------------||
E|-----------------||-----------------||-----------------||

  fall upon us all
e|-----------0---0-||    
B|-----2-----------||  
G|---2---2---------||   
D|-2-------2-------||  
A|-------------2---||  
E|-----------------||  

     and between       the sand and      stone could you
e|-----------0-----||-----------0-----||-----------0-----||
B|-----0-------0---||-----4-------4---||-----5-------5---||
G|---1---1-------1-||---4---4-------4-||---6---6-------5-||
D|-1-------1-------||-4-------4-------||-6-------6-------||
A|-----------------||-----------------||-----------------||
E|-----------------||-----------------||-----------------||
 make it on your own
e|-----------0---0-||  <---this whole part---<<  
B|-----2-----------||  you could start strumming this part.
G|---2---2---------||  The chord used here is E but strum only 
D|-2-------2-------||  the E,A,D strings
A|-------------2---||  
E|-----------------||
[ Tab from: http://www.guitartabs.cc/tabs/c/calling/wherever_you_will_go_crd_ver_4.html ]
Chorus: (Start strumming full here,like hit all the strings)
  E          B           C#m          A               E
  if I could then I would I'll go wherever you will go
             B           C#m          A               E <--in this chord
  way up high or down low I'll go wherever you will go   start plucking 
                                                              again 

Verse 2: same pattern as the 1st Verse

  And maybe I'll find out a way to make it back someday 

  To watch you and guide you through the darkest of your days

  If a great wave shall fall and fall upon us all
                                            E <-start the E,A,D strumming
  Then I hope there's someone out there who could bring me back to you

Chorus: (Do the full strum again)
  
  E          B           C#m          A               E
  if I could then I would I'll go wherever you will go
             B           C#m          A               Am 
  way up high or down low I'll go wherever you will go    

Bridge: 
  F                G
  Run away with my heart
  Em               Am
  Run away with my hope
  F                G     Em  Am <---Remember: at this last two chords.At 
  Run away with my love                       the Em chord strum only the 
                                              E,A,D strings two times (2X) 
                                              and the Am chord strum also 
                                              the same strings but do it 
                                              four times (4x) 




Verse 3: (Do the strumming pattern again)

  I know now just quite how 

  my love my life might still go on 

  In your heart, In your mind

  I'll stay with you for all of time 

Chorus: (Do the full strum again)
  
  E          B           C#m          A               E
  if I could then I would I'll go wherever you will go
             B           C#m          A               E 
  way up high or down low I'll go wherever you will go
             B         C#m                A              E
  If I could turn back time I'll go where ever you will go
             B        C#m              A               E    B    C#m
  If I could make you mine I'll go wherever you will goooooooooooooooo
              A               E   B   C#m  AAA <---the reason why i put 
  I'll go wherever you will goooooooooooo          three A's is because 
                                                   i play the A's like 
                                                   this
                          
                                               
                                                e|-0--||-0--||-0--
                                                B|-0--||-0--||-2--
                                                G|-0--||-2--||-2--
                                                D|-2--||-2--||-2--
                                                A|-0--||-0--||-0--
                                                E|-0--||-0--||-0--


*And this wraps up the perfect chords and tabs 
 of the wherever you will go song. If you have any comments
 and/or suggestions just e-mail me at ssj_mastery@yahoo.com
 please don't forget to rate my piece please. Thnx fellow guitarist
Comments