Calling - Wherever You Will Go Chords & Tabs

 

Wherever You Will Go Chords & Tabs

Calling Chords & Tabs

Version: 3 Type: Chords 0 ratings
1 star 2 stars 3 stars 4 stars 5 stars
comments

Wherever You Will Go Chords

   
SONG: WHEREVER YOU WILL GO
ARTIST: THE CALLING
TABBED BY: JOED

::::::::

CHORDS
C       --  x32010
Gadd4/B --  x2001x
Am7     --  x02010
F6/9    --  1x001x
Gsus4   --  3x001x
G       --  320033
F       --  133211
Em      --  022000
   

          ;INTRO;
E-------------------------------------------
B--------3-------3-------3------3-3-3-------
G-----2-2-2---2-2-2---2-2--2-----2-2--------
D----4-4---4-4-4---4-4-4----4---------------
A---5-------4-------2-----------------------
E-----------------------------3-------------

E-------------------------------------------
B--------3-------3-------3------3-3-3-------
G-----2-2-2---2-2-2---2-2--2-----2-2--------
D----4-4---4-4-4---4-4-4----4---------------
A---5-------4-------2-----------------------
E-----------------------------3-------------


[ Tab from: http://www.guitartabs.cc/tabs/c/calling/wherever_you_will_go_crd_ver_3.html ]
C          Gadd4/B        Am7         F6/9       Gsus4
so lately, been wondering,who will be there to take my place 
C             Gadd4/B          Am7          F6/9    Gsus4
when i'm gone you'll need love to light the shadows on your face 
C        Gadd4/B      Am7      F6/9 Gsus4
if a great wave shall fall and fall upon us all 
C    Gadd4/B              Am7              F6/9    Gsus4
then between the sand and stone, could you make it on your own 

CHORUS

C           G
if i could, then i would, 
Am7         F  
i'll go wherever you will go 
C           G            Am7         F
way up high or down low, i'll go wherever you will go 

C          Gadd4/B       Am7      F6/9    Gsus4 
and maybe, i'll find out a way to make it back someday 
C             Gadd4/B       Am7         F6/9   Gsus4 
to watch you, to guide you, through the darkest of your days 
C          Gadd4/B    Am7      F6/9 Gsus4           
if a great wave shall fall and fall upon us all 
C      Gadd4/B              Am7               F6/9     Gsus4
then i hope there's someone out there who can bring me back to you 

chorus 
F             G
run away with my heart 
Em            Am7
run away with my hope 
F             G      Em
run away with my love 

C           Gadd4/B 
i know now, just quite how 
Am7         F6/9       Gsus4
my life and love might still go on 
C              Gadd4/B       Am7            F6/9  
in your heart, in your mind, i'll stay with you for 
Gsus4
all of time 

chorus
Comments