Calling - Wherever You Will Go Chords & Tabs

 

Wherever You Will Go Chords & Tabs

Calling Chords & Tabs

Version: 3 Type: Bass Tab 0 ratings
1 star 2 stars 3 stars 4 stars 5 stars
comments

Wherever You Will Go Bass Tab

Artist: The Calling
Title: Wherever You Will Go
Album: Camino Palmero
Transcribed by: Costas TG
Email: costastg@hotmail.com

Verse
G------------------------|
D------------------------|
A--5----4----2-----------|
E-----------------3------|
[ Tab from: http://www.guitartabs.cc/tabs/c/calling/wherever_you_will_go_btab_ver_3.html ]
Chorus
G---------------------------------------------------------------------|
D---------------------------------------------------------------------|
A--5-5-5-5-5-5-5-5--4-4-4-4-4-4-4-4--2-2-2-2-2-2-2-2------------------|
E-----------------------------------------------------3-3-3-3-3-3-3-3-|


Bridge ("Runaway with my heart...")
G---------------------------------------------------------------------|
D---------------------------------------------------------------------|
A--2-2-2-2-2-2-2-2----------------------------------------------------|
E-------------------3-3-3-3-3-3-3-3--5-5-5-5-5-5-5-5--2-2-2-2-2-2-2-2-|



Any corrects, please, e-mail me.
Comments