Calling - Wherever You Will Go Acoustic Chords & Tabs

 

Wherever You Will Go Acoustic Chords & Tabs

Calling Chords & Tabs

Version: 1 Type: Tab 0 ratings
1 star 2 stars 3 stars 4 stars 5 stars
comments

Wherever You Will Go Acoustic Tab

   
Wherever You Will Go

The Calling

This is trhe acoustic version of this wicked song, I think its all right
if you think its wrong, well you can e-mail me at BoneIdol76@aol.com

Capo on 1st fret

here are the cords

C x32010

Gsus4/b x2001x

Am7 x02010 

Gsus4/f Tx001x  T = thumb

Gsus4 32001x

Ftriangle7 x03210

Am9 x02000

G 31000x

G(add 9) 31020x


Intro is picked
[ Tab from: http://www.guitartabs.cc/tabs/c/calling/wherever_you_will_go_acoustic_tab.html ]
------------------------------------------------------------------
--------------1---------------------1--------------------1--------
------0----------0------------0-------0-----------0--------0------
----2-----2----------2------0----0------0------2-------2-----2----
--3-----3-----------------2----2------------0-------0-------------
------------------------------------------------------------------

---------------------
-------1-----1--1----
-------0-----0--0----
----0----0-----------
---------------------
-1---------1---------

The Verse is the same as the Intro but done twice

Chours

C Gsus4 Am7 Ftriangle C Gsus4 Am7 Ftriangle

Repeat Verse & Chorus

Middle 8

Am7,Am9Am7 
Comments